Crazy Train Tab por Ozzy Osbourne

tablatura Ukulele sin acordes.

Añadir esta tab a su SongBook
Tablature / ChordsFont size: A- A A+

¿ No sabe cómo leer una tablatura o un acorde ?

curso de ukulele

# Intro

-4-4-------------7-7-----2-2-----
-2-2-------------5-5-----0-0-----
---------------------------------
---------------------------------

-4-4-------------12-12---2-2-----
-2-2-------------10-10---0-0-----
---------------------------------
---------------------------------

-4-4-------------7-7-----2-2-----
-2-2-------------5-5-----0-0-----
---------------------------------
---------------------------------

-4-4-------------12-12---2-2-----
-2-2-------------10-10---0-0-----
---------------------------------
---------------------------------

-----4---5---4---2-0---0-2-0-----
-2-2---2---2---2-----4-------4-0-
---------------------------------
---------------------------------

-----4---5---4---2-0---0-2-0-----
-2-2---2---2---2-----4-------4-0-
---------------------------------
---------------------------------

-----4---5---4---2-0---0-2-0-----
-2-2---2---2---2-----4-------4-0-
---------------------------------
---------------------------------

-----4---5---4---2---------------
-2-2---2---2---2---3------5------
-------------------2------4------
-------------------0------2------

# Verse

---------------------------------
-5-5-5---5-5-5---3-3-3---2-2-2---
-6-6-6---4-4-4---2-2-2---2-2-2---
-7-7-7---6-6-6---4-4-4---2-2-2---

# repeat several times

-4---4---6-7---------7*---
-2p0-2---4-5------7*------
---------------7*---------
--------------------------

-4---4---6-7--------------
-2p0-2---4-5--------------
--------------------------
--------------------------

-0-0-0--------------------
-------4-2-0-0-0-0-2-4----
--------------------------
--------------------------

-4---4-x-x-----0----------
-2p0-2-x-x-2-4---4-2-0----
--------------------------
--------------------------

-0-0-0--------------------
-------4-2-0-0-0-0-2-4----
--------------------------
--------------------------

-4---4-x-x----------------
-2p0-2-x-x-2-4-3---5------
---------------2---4------
---------------0---2------

# Repeat chorus

# Solo - I placed a 't' before the tapped notes

-----------------------------
-2h5t9p5t9p5p2h5t9p5t9p5p2h5-
-----------------------------
-----------------------------

------------------------------
-t10p5t10p5p2h5t10p5t10p5p2h5-
------------------------------
------------------------------

# Bend the string at the second fret in the next part
----------------------------------
-t5p2t5p2t5p2t5p2t5p2t5p2t5p2t5p2-
----------------------------------
----------------------------------

-----------
-------5---
-4(5)4---4-
-----------

-/12-11-9--------9-11-12-12(14)12-
----------12(14)------------------
----------------------------------
----------------------------------

-9h12p9----9------------------------
--------12---12-10-9-10p9-----------
--------------------------11p9-11p9-
------------------------------------

------------------------
----------12------------
-11(12)11----11(12)11-9-
------------------------

-9t12p9t12p9t12p9t12p9t12p9t12p9-
---------------------------------
---------------------------------
---------------------------------

-t13p10t14p11t16p12t16p12t16p12-
--------------------------------
--------------------------------
--------------------------------

-t16p12t16p12t16p12t14p11t14p11-
--------------------------------
--------------------------------
--------------------------------

-t14p11t14p11t14p11t14p11-
--------------------------
--------------------------
--------------------------

-9h12p9-------------12------------
--------12-12(14)12----12-10-9----
-------------------------------11-
----------------------------------

---------------------------------
---------------------------------
-9------9------9------9------9---
---11p9---11p9---11p9---11p9---9-

-----------------------
-----------------------
-8h9p8h9p8h9p8h9/11----
-----------------------

----------------9-10-12-10-12-14-
--------9-10-12------------------
-8-9-10--------------------------
---------------------------------

-14(16)(16)(16)14------
-----------------------
-----------------------
-----------------------

# Back to this intro bit

-----4---5---4---2-0---0-2-0-----
-2-2---2---2---2-----4-------4-0-
---------------------------------
---------------------------------

-----4---5---4---2-0---0-2-0-----
-2-2---2---2---2-----4-------4-0-
---------------------------------
---------------------------------

-----4---5---4---2-0---0-2-0-----
-2-2---2---2---2-----4-------4-0-
---------------------------------
---------------------------------

-----4---5---4---2---------------
-2-2---2---2---2---3------5------
-------------------2------4------
-------------------0------2------

# Verse again

---------------------------------
-5-5-5---5-5-5---3-3-3---2-2-2---
-6-6-6---4-4-4---2-2-2---2-2-2---
-7-7-7---6-6-6---4-4-4---2-2-2---

# Outro

-4-4-------------7-7-----2-2-----
-2-2-------------5-5-----0-0-----
---------------------------------
---------------------------------

-4\--------------12-12---2-2-----
-2\--------------10-10---0-0-----
---------------------------------
---------------------------------

-4\--------------7-7-----2-2-----
-2\--------------5-5-----0-0-----
---------------------------------
---------------------------------

-4\--------------12-12---14-14---
-2\--------------10-10---12-12---
---------------------------------
---------------------------------

-16\-------------7-7-----2-2-----
-14\-------------5-5-----0-0-----
---------------------------------
---------------------------------

-4-4-
-2-2-
-----
-----

 

Comentarios (0)
Ningún comentario :(
¿Necesitas ayuda, un consejo para compartir o simplemente quieres hablar sobre esta canción? Comience la discusión

Debes iniciar sesión para unirte a la discusión
o Registrarse

 

Acerca de esta canción

No hay información por esta canción.