Road Tab por Nick Drake

tablatura Ukulele sin acordes.

Añadir esta tab a su SongBook
Tablature / ChordsFont size: A- A A+

¿ No sabe cómo leer una tablatura o un acorde ?

curso de ukulele

H        
|----2---2----02--|-0--02--0--------||---0---0--0-0---0|-5-0---(0)-40--0-|
|42--------1------|-------------4--4| |---0-0------0---0|---0--0-----0--0-| |5-50--250--5--25-|-50--2505-5-7-2---|
|-2---0----2-0---0|2---0----2-0----0-|
|-----------------|------------------|
|----0----0---0---|---0--------------|
|-50--250--5-52--|-50--2505-5-|
|2---0----2-0---0|2---0----2-0|
|----------------|------------|
|---0----0-----0-|---0--------|

|-2--22---2--22--|-0--2---2-------|
|5-------5-------|5-0---00-040-0-0|
|---2---2---2---2|------------4---|
|--0---0---0---0-|---0-0--------0-|

 

Comentarios (0)
Ningún comentario :(
¿Necesitas ayuda, un consejo para compartir o simplemente quieres hablar sobre esta canción? Comience la discusión

Debes iniciar sesión para unirte a la discusión
o Registrarse

 

Acerca de esta canción

No hay información por esta canción.