Parasite Tab por Nick Drake

tablatura Ukulele sin acordes.

Añadir esta tab a su SongBook
Tablature / ChordsFont size: A- A A+

¿ No sabe cómo leer una tablatura o un acorde ?

curso de ukulele

A|------3-----7-----3----|------3-----7-----3----|
E|1-3-----3-----3-----3--|6-------6-----6-----6--|
C|0---0-----0-----0-----0|0---0-----0-----0-----0|
G|-----------------------|-----------------------|

A|------3-----7-----3----|------3-----8-7---3----|
E|5-------5-----5-----5--|4-------4-----------4--|
C|0---0-----0-----0-----0|0---0-----0-----0-----0|
G|-----------------------|-----------------------|

A|4---------4---------4---------4---------4------|
E|4-------4-4-------4-4-------4-4-------4-4------|
C|1---1-1-1-1---1-1-1-1---1-1-1-1---1-1-1-1------|
G|0---0-0-0-0---0-0-0-0---0-0-0-0---0-0-0-0------|

A|------3-----7-----3----|8-7---3--------3--3--3-|
E|1-3-----3-----3-----3--|--------3------3--3--3-|
C|0---0-----0-----0-----0|----0-----0----5--4--0-|
G|-----------------------|-----------------------|

A|4---------4---------4---------4---------4--6-6-|
E|4-------4-4-------4-4-------4-4-------4-4--4-4-|
C|1---1-1-1-1---1-1-1-1---1-1-1-1---1-1-1-1--1-1-|
G|0---0-0-0-0---0-0-0-0---0-0-0-0---0-0-0-0--0-0-|

A|------3-----7-----3----|8-7---3--------3--3--3-|
E|1-3-----3-----3-----3--|--------3------3--3--3-|
C|0---0-----0-----0-----0|----0-----0----5--4--0-|
G|-----------------------|-----------------------|

 

Comentarios (0)
Ningún comentario :(
¿Necesitas ayuda, un consejo para compartir o simplemente quieres hablar sobre esta canción? Comience la discusión

Debes iniciar sesión para unirte a la discusión
o Registrarse

 

Acerca de esta canción

No hay información por esta canción.