In The Bleak Midwinter Tab por Misc Christmas

tablatura Ukulele sin acordes.

Añadir esta tab a su SongBook
Tablature / ChordsFont size: A- A A+

¿ No sabe cómo leer una tablatura o un acorde ?

curso de ukulele

|-0---1--3--0-------------------------------|
|-1---1-----1---3--1--3-3/5--3------3-------|
|-0---0-----0------2------------2---2-------|
|-2---2-----2------2----------------2-------|


|-0---1--3--0-------------------------------|
|-1---1-----1---3--1--3-3/5--3--1---1-------|
|-0---0-----0------2----------------0-------|
|-2---2-----2------2----------------2-------|


|-1--0--1--0--3--3/5--0---3--0--------------|
|-1--1--1--1----------0---1--1--3--1--0-----|
|-2--0--2--0----------0---2--2--2--2--0-----|
|-3--2--3--2----------2---2--2--2--2--2-----|


|-0---1--3--0-------------------------------|
|-1---1-----1---3--1--3-3/5--3--1---1-------|
|-0---0-----0------2----------------0-------|
|-2---2-----2------2----------------2-------|


Repeat 5 times (once for each verse)

 

Comentarios (0)
Ningún comentario :(
¿Necesitas ayuda, un consejo para compartir o simplemente quieres hablar sobre esta canción? Comience la discusión

Debes iniciar sesión para unirte a la discusión
o Registrarse

 

Acerca de esta canción

No hay información por esta canción.