Away In A Manger Tab por Misc Christmas

tablatura Ukulele sin acordes.

Añadir esta tab a su SongBook
Tablature / ChordsFont size: A- A A+

¿ No sabe cómo leer una tablatura o un acorde ?

curso de ukulele

A|----------------0---------0--1--------|
E|-------1--1--3------1--1--------------|
C|--0----0------------0-----------------|
G|-------2------------2-----------------|



A|--3--3--5---1-----0---1---1--3--------|
E|--1---------1--3------1---------------|
C|--0---------2---------2---------------|
G|--2---------3---------3---------------|



A|--0---0-----0-------------------------|
E|--1------1------3-----1---0-----------|
C|--0-------------2--2------0--0--------|
G|--2-------------0---------0-----------|



A|-----------0---------0--1---3---3--5--|
E|--1--1--3------1--1---------1---------|
C|--0------------0------------0---------|
G|--2------------2------------2---------|



A|--1-----0---1--1--3---0--0-----0------|
E|--1--3------1---------1-----1---------|
C|--2---------2---------0---------------|
G|--3---------3---------2---------------|



A|-----------------------|
E|--3------0---1---------|
C|--2---2------0---------|
G|--0----------2---------|

 

Comentarios (1)
Debes iniciar sesión para unirte a la discusión
o Registrarse

 

alicew avatar
flag for AU(ISO2) (Melbourne)
This is lovely!
22 Oct 2020
Acerca de esta canción

No hay información por esta canción.