Freedom At 21 Tab por Jack White

1 Acordes utilizados en la canción:

ImprimirAñadir esta tab a su SongBook
Tablature / ChordsFont size: A- A A+

¿ No sabe cómo leer una tablatura o un acorde ?

curso de ukulele

A|-2-2-5-2-2-0----------------------------|
E|-------------0--------------------------|
C|----------------------------------------|
G|----------------------------------------|


A|---2-5------0-5-------------------------|
E|-3--------2-----------------------------|
C|----------------------------------------|
G|----------------------------------------|

# E E chord in between riffs

A|--1---------------x--1-------------------|
E|--3---------------x--3-------------------|
C|--3---------------x--3-------------------|
G|--3---------------x--3-------------------|

 

Comentarios (0)
Ningún comentario :(
¿Necesitas ayuda, un consejo para compartir o simplemente quieres hablar sobre esta canción? Comience la discusión

Debes iniciar sesión para unirte a la discusión
o Registrarse

 

Acerca de esta canción

No hay información por esta canción.