Sixteen Saltines Tab por Jack White

4 Acordes utilizados en la canción: E, G, A, B

ImprimirAñadir esta tab a su SongBook
Tablature / ChordsFont size: A- A A+

¿ No sabe cómo leer una tablatura o un acorde ?

curso de ukulele

# Verse Chords: E E-G G-A A-B B

A|-0-0-3-3---5-5-7-7------------|
E|-0-0-3-3---5-5-7-7------------|
C|------------------------------|
G|------------------------------|



# Chorus Chords: G G-A A

A|-8-8-8-8-8-8-8-8---10-10-10-10-10-10-10-|
E|-8-8-8-8-8-8-8-8---10-10-10-10-10-10-10-|
C|----------------------------------------|
G|----------------------------------------|


# Riff

A|-----5-----------5-7--------------------|
E|-0-3---5-----5-3------------------------|
C|----------------------------------------|
G|----------------------------------------|

 

Comentarios (0)
Ningún comentario :(
¿Necesitas ayuda, un consejo para compartir o simplemente quieres hablar sobre esta canción? Comience la discusión

Debes iniciar sesión para unirte a la discusión
o Registrarse

 

Acerca de esta canción

No hay información por esta canción.