The Adventure Zone The Crystal Kingdom - Madam Director Tab por Griffin McElroy

tablatura Ukulele sin acordes.

Añadir esta tab a su SongBook
Tablature / ChordsFont size: A- A A+

¿ No sabe cómo leer una tablatura o un acorde ?

curso de ukulele

From The Adventure Zone: The Crystal Kingdom OST
By: Griffin McElroy
Converted here from the guitar tab by Courtecius on UltimateGuitar

Background Melody

A|---------------------|
E|----------------3----|
C|-5---------5------5--|
G|----5-5-------5------| x33

Main Melody

A|-----------------|--------------------------------|
E|---------3-------|-5--------3-5-------6--5-----6--|
C|-5-----4---5-----|-------5------------------------|
G|-----------------|---------------5----------------|

A|-----------------|------------------------------------|
E|---------3-------|-5--------3-5-------5-----6---------|
C|-5-----4---5-----|-------5----------------------------|
G|-----------------|---------------9--5-----------------|

A|-----------------------|----------------------------------------|
E|-------3------5--6-----|----------3--------------------------|
C|5----------------------|-------5-----------------------------|
G|-----------------------|-5-----------5--12--10--5-----8--7--10--|

A|---------------|--------------------------|-------------|
E|-------------|-------3--5-----------|----------|
C|-------------|----5-----------------|----------|
G|-9--12--10-----|-14-----------17--12--14--|-15--12--10--|

A|---------------|--------------------------|-------------|-------------|
E|-------------|-------3--5-----------|----------|-------6----|
C|-------------|----5-----------------|----------|------------|
G|-9--12--10-----|-14-----------17--12--14--|-15--12--10--|-9--12-------|

A|--------------------------------|
E|-5-----3--5-----------5------6--|
C|----5---------------------------|
G|-------------9-----5------------|

 

Comentarios (1)
Debes iniciar sesión para unirte a la discusión
o Registrarse

 

bloominggraves avatar
tips on how to play both the backing melody and the main melody at the same time?
17 Nov 2020
Acerca de esta canción

No hay información por esta canción.