Arms Outstretched Tab por Griffin McElroy

tablatura Ukulele sin acordes.

Añadir esta tab a su SongBook
Tablature / ChordsFont size: A- A A+

¿ No sabe cómo leer una tablatura o un acorde ?

curso de ukulele

Main Riff


A|-------1---5---6---------------------------|
E|---3-------------------------------------|
C|----------------------------------------|
G|----------------------------------------|


First Bass
A|---------------|------------|--------|-----|
E|---------------|------------|--------|-----|
C|---------------|------------|--3----|--0-----|
G|----0---------|---0--2--3--|-------|-----------|


Second melody (After Main Riff)
A|-------1---5---6-------1---5---6-------|
E|---3---------------3-------------------|
C|----------------------------------------|
G|----------------------------------------|

A|--1---0---8---6---1---0---8---6-------|
E|----------------------------------------|
C|----------------------------------------|
G|----------------------------------------|

A|--0---1---5---6---0---1---5---6-------|
E|----------------------------------------|
C|----------------------------------------|
G|----------------------------------------|

A|--3---1---5---6---3---1---5---6-------|
E|----------------------------------------|
C|----------------------------------------|
G|----------------------------------------|

Second Bass

A|------------------|---1---------6---|--5---------1---|--3--------0---|
E|--------------1---|------------------|----------------|---------------l
C|-----------------|-------------------|----------------|---------------|
G|---0-------------|-------------------|----------------l---------------|

Third Melody
A|--10----5-1---1-3---3-0----9----------|
E|---------------------------2-----------|
C|----------------------------------------| x2
G|--0-------------------------------------|

Third Bass is Main Riff

Fourth Melody
A|--5-1-5-1-5-1-5-6-|--5-1-5-1-5-6-5-1-|--5-1-5-1-5-1-5-1--|-3-0-3-0-3-0-3-0-|
E|--------------------|-------------------|--------------------|--------------------|
C|--------------------|-------------------|--------------------|--------------------|
G|--0-----------------|-------------------|--------------------|--------------------|

Fourth Bass
A|------------0-1---6------|----------------------|------------------------|
E|--------------------------|----------------------|---------------------|
C|--------------------------|-------------3-------|----0---------------------|
G|---0---0-----------------|----0--2--3----------|--------------------------|

Fifth Melody

A|-------1---5---6-------1---5---6-------|
E|---3---------------3-------------------|
C|----------------------------------------|
G|----------------------------------------|

A|--1---0---8---6---1---0---8---6-------|
E|----------------------------------------|
C|----------------------------------------|
G|----------------------------------------|

A|--0---1---5---6---0---1---5---6-------|
E|----------------------------------------|
C|----------------------------------------|
G|----------------------------------------|

A|--3---1---5---6---3---1---5---6-------|
E|----------------------------------------|
C|----------------------------------------|
G|----------------------------------------|

A|----------------------------------------|
E|----------------------------------------|
C|----------------------------------------|
G|----------------------------------------|


Fifth Bass
A|----------------------------------------|
E|-1--1--1--------------------------------|
C|---------------------------------------|
G|-----------0--0------------------------|

A|-1--1--1---6--6------------------------|
E|----------------------------------------|
C|----------------------------------------|
G|----------------------------------------|

A|-5--5--5---1--1------------------------|
E|----------------------------------------|
C|----------------------------------------|
G|----------------------------------------|

A|-3--3--3---0--0------------------------|
E|----------------------------------------|
C|----------------------------------------|
G|----------------------------------------|

Sixth Melody
A|--5-1-5-1-5-1-5-6-|--5-1-5-1-5-6-5-1-|--5-1-5-1-5-1-5-1--|-3-0-3-0-3-0-3-0-|
E|--------------------|-------------------|--------------------|--------------------|
C|--------------------|-------------------|--------------------|--------------------|
G|--------------------|-------------------|--------------------|--------------------|

Sixth Bass
A|----------------------------------------|
E|-1--1--1--------------------------------|
C|---------------------------------------|
G|-----------0--0------------------------|

A|-1--1--1---6--6------------------------|
E|----------------------------------------|
C|----------------------------------------|
G|----------------------------------------|

A|-5--5--5---1--1------------------------|
E|----------------------------------------|
C|----------------------------------------|
G|----------------------------------------|

A|-3--3--3---0--0------------------------|
E|----------------------------------------|
C|----------------------------------------|
G|----------------------------------------|

 

Comentarios (2)
Debes iniciar sesión para unirte a la discusión
o Registrarse

 

bloominggraves avatar
oofa DOOFA
19 Nov 2020
jk7515 avatar
hachi machi boys
16 Jun 2020
Acerca de esta canción

No hay información por esta canción.