Amnesty Theme Tab por Griffin McElroy

tablatura Ukulele sin acordes.

Añadir esta tab a su SongBook
Tablature / ChordsFont size: A- A A+

¿ No sabe cómo leer una tablatura o un acorde ?

curso de ukulele

|-----5-----5-5-5---------5-----5-|-----5-----5-5-----------5-----5-|
|-0---------------0---0-----------|-0---------------0---------------|
|---------------------------------|---------------------------------|
|---------------------------------|---------------------------------|

|---------------------------------|-------------------------------7-|
|---------------------------------|-----------------------------3---|
|-4---2-----2-2-2-4---4---2-----2-|-4---2-----2-2---4---4---2-------|
|---------------------------------|---------------------------------|

|-----------------5---------------|-5---------------5-------------7-|
|-0-----0-------0---------0-----0-|-5---5-0-------0-5---5---0---0---|
|-2---4-------2---4---4-------4---|-------------2-----------2-------|
|-3---------3-------------3-------|-3---------3-------------3-------|
H H
|-5-------------------------------|-5-----------------------------7-|
|-4-----4-----7-------------------|-5---5-------5-----1-5-----1-3---|
|-4-------4---2---4---2---4---2---|-----------2-----2-------2-------|
|-3---3-------3-----4-6-----6-5---|-------5-------5-------5---------|
S H
|-0-----5-------5------------------|-5-5-------7------5--------------|
|-----------------2-5---5-------5--|---3-5-------5----3---5----3-1-2-|
|-4---4-------4-------4-------4----|-4-9--------------9--------------|
|-3---------3-----3-6-------6------|-------7-------7--8-----6--------|
P P P P P
|-4----------------9---------7---5-|-------5-------------------------|
|-7---------2-------5---5-2-------|-5---5-------5---1-0---3-----3---|
|-4---4-------4---2---4---2---4---|---------------2-----2---6-4---6-|
|-11-----4-------4-4-------x-----3-|-----------3-----------------3-1-|
H S
|-5---------------5----------------|-5--------------------------------|
|-------------1--------------------|-3---5-----5-1---3---5-----5------|
|-4---4-3---4-----4---4-3---4-3-5--|-9-----3---------9-----3-----3-5--|
|-0-----4---------8-----4----------|-8-----4---------8-----4----------|
H
|-5---------------5----------------|-5-----------7-----------7--------|
|-------------1--------------------|-3---5-5---5-----5-1-5-1-3---5----|
|-4---4-3---4-----4---4-3---4-3-5--|-9--------------------------------|
|-8-----4---------8-----4----------|-8-----6-----------5---5-5---6----|
H P P P
|-5---------------5----------------|-5---------7-5-------------------|
|-------------1--------------------|-3---5-5-----5---1-0---3-----3---|
|-4---4-3---4-----4---4-3---4-3-5--|-9-------------2-----2---6-4---6-|
|-8-----4---------8-----4----------|-8-----6---------------------3-1-|

|-5---5----------------------------|---------------------------------|
|----------------------------------|---------------------------------|
|-4--------------------------------|---------------------------------|
|-0--------------------------------|---------------------------------|

 

Comentarios (4)
Debes iniciar sesión para unirte a la discusión
o Registrarse

 

bloominggraves avatar
this is it. this is my magnum opus
19 Nov 2020
bloominggraves avatar
oh my GODS
19 Nov 2020
bloominggraves avatar
oofa doofa
17 Nov 2020
thebiggestyamfan avatar
hachi machi
07 Apr 2020
Acerca de esta canción

No hay información por esta canción.