Start Tab por Depapepe

tablatura Ukulele sin acordes.

Añadir esta tab a su SongBook
Tablature / ChordsFont size: A- A A+

¿ No sabe cómo leer una tablatura o un acorde ?

curso de ukulele

A|------------------------|------|------------------------|
E|--------------4------4--|------|--------------4---------|
C|--4----4----4----4------|------|--4----4----4-----------|
G|----9----6---------6----|--3X--|----9----6---------6----|

A|---0---|---5---|---2---|---5---|---|
E|---0---|---0---|---0---|---0---|---|
C|-------|---2---|---4---|---2---|---|
G|---2---|---2---|---1---|---2---|4X-|

A|---0---|-------|-------|-------|---2---|---2---|---5---|---2---|
E|---0---|---4---|---2---|---0---|---2---|---2---|---2---|---0---|
C|-------|---1---|---1---|---1---|-------|-------|---2---|---4---|
G|---2---|---4---|---3---|---3---|---4---|---2---|---2---|---1---|

A|---0---|-------|-------|-------|---2---|---2---|---0-----------|
E|---0---|---4---|---2---|---0---|---2---|---0---|---0-----------|
C|-------|---1---|---1---|---1---|-------|---4---|---------------|
G|---2---|---4---|---3---|---3---|---2---|---1---|---2-----------|
H H H
A|----------------------------------------------------------------------------------|
E|--------5-----------------------5----------------------5------------------6-------|
C|--4--4------------------4--4---------------------4--4-----------------------------|
G|-----------4--4-6--6---------------4--4-6--6--------------4--4-6--6----4----------|
S S S
A|--------------------------------------------------------------------------|
E|--------------------------------------------------------------------------|
C|--4-6------------------4-6------------------4-6---------------------------|
G|------4--6---6--7--7-------4--6---6--7--7-------4--6---6--7--7---6---4----|
H H H
A|---------------------------------------------------------------------|
E|--------5-----------------------5----------------------5-------------|
C|--4--4------------------4--4---------------------4--4----------------|
G|-----------4--4-6--6---------------4--4-6--6--------------4--4-6--6--|
S S
A|---------------------------------------------------------------------|
E|---------------------------5-4---4-4-5-5----5------------------------|
C|--4-4-4--2----2-2-4--2-----------------------------------------------|
G|-----------6-----------6-4---------------4---------------------------|

A|---5---|---2---|-------|-------|---5---|---2---|---0----------|
E|---2---|---0---|---4---|---0---|---2---|---0---|---0----------|
C|---2---|---4---|---1---|---1---|---2---|---4---|--------------|
G|---2---|---1---|---4---|---3---|---2---|---1---|---2----------|
S S
A|---------------------------------------|
E|-------------5-4--5--5-----------------|
C|---2---2-2-2-----------2--2-4-4-4-4-4--|
G|---4---4-4-4-5-4--5--5-4--4-6-6-6-6-6--|
S
A|--------------------------------------------------------|---------------|
E|--------------------------------5--4----4-4-5-5----5----|------4-5------|
C|---5--7--5--4--4-4-4--5---4--2------------------2-------|-4-6-----------|
G|---7--9--7--6--6-6-6--7---6--4--5--4----4-4-5-5-4--5----|-----------4---|

A|---0---|-------|-------|---2---|---5---|------------|---2---|---2---|---|
E|---0---|---4---|---2---|---0---|---2---|---4----2---|---2---|---0---|---|
C|-------|---1---|---1---|---4---|---2---|---1----1---|-------|---4---|---|
G|---2---|---4---|---3---|---1---|---2---|---4----3---|---3---|---1---|2X-|

A|--------------------------------------------------------------------------------------|
E|--5---5---5---------------------------------------------------------------|
C|--------------------------------------------------------------------------|
G|-------------4--6-9---9--9---9--11--13--14---14--14---14--14--14---13--14--13---11----|

A|----------------------------------------------------------------------------|---|
E|-----------------------------5---------------5------------5-------5---|---|
C|----------------------------------------------------------------------|---|
G|--9--11---11---11--11--11---9--11------7--7--7--6-----4----6-4-----6-4------|2X-|

A|---0---|---5---|---2---|---5---|---|
E|---0---|---0---|---0---|---0---|---|
C|-------|---2---|---4---|---2---|---|
G|---2---|---2---|---1---|---2---|2X-|

 

Comentarios (0)
Ningún comentario :(
¿Necesitas ayuda, un consejo para compartir o simplemente quieres hablar sobre esta canción? Comience la discusión

Debes iniciar sesión para unirte a la discusión
o Registrarse

 

Acerca de esta canción

No hay información por esta canción.