Keep Your Head Up (Intro) Tab por Ben Howard

tablatura Ukulele sin acordes.

Añadir esta tab a su SongBook
Tablature / ChordsFont size: A- A A+

¿ No sabe cómo leer una tablatura o un acorde ?

curso de ukulele

A||--1-----1-----1---|-1-----1-----1---|---0---0-----0---|---0------1---1--|
E||------1-----1-----|-----1-----1-----|-----1-----1-----|--------3---1-1--|
C||----2-------------|---2-------------|-4---------------|-6---2-----------|
G||----------0-----0-|---------0-----0-|---------0-----0-|--------------0--|
P
A|--1-----1-----1---|-1-----1-------1-|---0---0-----0---|---0------1---1--|
E|------1-----1-----|-----1-------1---|-----1-----1-----|--------3---1-1--|
C|----2-------------|---2-------------|-4---------------|-6---2-----------|
G|----------2-----2-|---------2-0-----|---------0-----0-|--------------0--|

A|--1-----1-----1---|-1-----1-----1------||
E|------1-----1-----|-----1-----1---1-1--||
C|----2-------------|---2----------------||
G|----------2-----2-|---------2-------2--||

 

Comentarios (0)
Ningún comentario :(
¿Necesitas ayuda, un consejo para compartir o simplemente quieres hablar sobre esta canción? Comience la discusión

Debes iniciar sesión para unirte a la discusión
o Registrarse

 

Acerca de esta canción

No hay información por esta canción.