Promise Tab por Ben Howard

tablatura Ukulele sin acordes.

Añadir esta tab a su SongBook
Tablature / ChordsFont size: A- A A+

¿ No sabe cómo leer una tablatura o un acorde ?

curso de ukulele

A|------------------------------|------------------------------| 
E|------4----------------4------|------4----------------4------|
C|---4------2--4------4------2--|---4------2--4------4------2--|
G|----------------6-------------|----------------6-------------|

A|------------------------------|------------------------------|
E|------4----------------4------|------4----------------4------|
C|---4------2--4------4------2--|---4------2--4------4------2--|
G|----------------6-------------|----------------6-------------|

A|------------------------------|------------------------------|
E|------4----------------4------|------4----------------4------|
C|----------2----------------2--|----------2----------------2--|
G|---6---------6--6---6---------|---6---------6--6---6---------|

A|------------------------------|------------------------------|
E|------4----------------4------|------4----------------4------|
C|----------2----------------2--|----------2----------------2--|
G|---6---------6--6---6---------|---6---------6--6---6---------|

A|------------------------------|------------------------------|
E|------------------------------|------------------------------|
C|------6--2--------------6--2--|------6--2--------------6--2--|
G|--8---------8---6---8---------|--8---------8---6---8---------|

A|---------------------------2--|---------------------------2--|
E|------4----------0-----4------|------4----------0-----4------|
C|---4------2--4------4---------|---4------2--4------4---------| G|------------------------------|------------------------------|

A|---------------------------2--|---------------------------2--|
E|------4----------0-----4------|------4----------0-----4------|
C|----------2-------------------|----------2-------------------| G|---6---------6------6---------|---6---------6------6---------|
P
A|------------------------------|------------------------------|
E|-----4----------4----------4--|--6------4----------6---------|
C|--4----------4----------4-----|------4------4-------------2--| G|---------6----------4---------|----------------4-------0-----|
P
A|------------------------------|------------------------------|
E|-----4----------4----------4--|--6------4----------6---------|
C|------------------------------|---------------------------2--| G|--6------6---6------4---6-----|------6------6--4-------0-----|

 

Comentarios (0)
Ningún comentario :(
¿Necesitas ayuda, un consejo para compartir o simplemente quieres hablar sobre esta canción? Comience la discusión

Debes iniciar sesión para unirte a la discusión
o Registrarse

 

Acerca de esta canción

No hay información por esta canción.