Old Pine Tab por Ben Howard

tablatura Ukulele sin acordes.

Añadir esta tab a su SongBook
Tablature / ChordsFont size: A- A A+

¿ No sabe cómo leer una tablatura o un acorde ?

curso de ukulele

INTRO:
A|--------------------7-------6---|-------------------------7-------6---|
c|----4-------2-5-------4-------2-|---------4-------2-5-------4-------0-|
C|2-------2-------2-------2-------|-----2-------2-------2-------2-------|
G|--0---4---0-------0-------0-----|--4----0---4---0-------0-------0-----|

A|2-------7--------2-------7-------|0--------7--------0-------7-------|
c|---------------------------------|---0---0-----0------0---0-----0---|
C|--2---2-----2------2---2-----2---|----------------------------------|
G|----0-----0---0------0-----0---0-|-----0-----0---0------0-----0---0-|

VERSE 1:
A|x---9-7-5-0---5-0-5-|--9-7-5-0-7-5-7-5-|
C|x-0-----------------|0-----------------|
C|x-------------------|------------------|
G|x-----------0-------|------------------|

A|---------0-----0---|2---------------|----------------|
c|---2-0-------------|--------0-------|--0---0-0---0---|
C|-4-----2-----2---2-|--2---2-----2---|1---------------|
G|-----------0-------|----0-----0---0-|----0-----0---0-|

 

Comentarios (0)
Ningún comentario :(
¿Necesitas ayuda, un consejo para compartir o simplemente quieres hablar sobre esta canción? Comience la discusión

Debes iniciar sesión para unirte a la discusión
o Registrarse

 

Acerca de esta canción

No hay información por esta canción.