L'étranger Uke tab by Graem Allwright

8 Chords used in the song: F, D6, Em, Bm, G, G6, Am, D

Add tab to your SongBook
Tablature / ChordsFont size: A- A A+

Don't know how to read a tab or a chord ? Check out these uke lessons:

Detailed guide to strumming and picking
How to read uke tabs
Reading chord diagrams

F F
Tous les hommes que tu as connu
D6 D6
Te disaient qu'il ne voulaient plus
Em Em
Donner les cartes
Bm Bm
Pris comme dans un piège
G G
C'est dur de retenir la main
Bm Bm
D'un homme qui cherche plus loin
G G Bm Bm
Qui veut atteindre le ciel pour se livrer
G G Bm Bm
Qui veut atteindre le ciel pour se livrer


# intro

Bm Bm
A|-----0-----0-----0-----0-|-----0-----0-----0-----0-|
E|---0-----0-----0-----0---|---0-----0-----0-----0---|
C|-------0-----------0-----|-2-----0-----------0-----|
G|-2-----------2-----------|-------------2-----------|

A|-----0-----0-----0-----0-|-----0-----0-----0-----0-||
E|---0-----0-----0-----0---|---0-----0-----0-----0---||
C|-2-----0-----------0-----|-2-----0-----------0-----||
G|-------------2-----------|-------------2-----------||

# Couplet:

F F
A|-----0-----0-----0-----0-|-----0-----0-----0-----0-|
E|---1-----1-----1-----1---|---1-----1-----1-----1---|
C|-------0-----------0-----|-------0-----------0-----|
G|-3-----------2-----------|-3-----------2-----------|

G6 G6
A|-----0-----0-----0-----0-|-----0-----0-----0-----0-|
E|---0-----0-----0-----0---|---0-----0-----0-----0---|
C|-------0-----0-----0-----|-------0-----0-----0-----|
G|--0----------------------|-0-----------------------|

Am Am
A|-----0-----0-----0-----0-|-----0-----0-----0-----0-|
E|---1-----1-----1-----1---|---1-----1-----1-----1---|
C|-2----------2------------|-2-----------2-----------|
G|-------2-----------2-----|-------2-----------2-----|

Em Em
A|-----0-----0-----0-----0-|-----0-----0-----0-----0-|
E|---0-----0-----0-----0---|---0-----0-----0-----0---|
C|-------0-----------0-----|-2-----0-----2-----0-----|
G|-2-----------2-----------|-------------------------|

D D
A|-----2-----2-----2-----2-|-----2-----2-----2-----2-|
E|---3-----3-----3-----3---|---3-----3-----3-----3---|
C|-------2-----------2-----|-------2-----------2-----|
G|-0-----------0-----------|-0-----------0-----------|


# etc...

 

Tab comments (0)
No comment yet :(
Need help, a tip to share, or simply want to talk about this song? Start the discussion!

You must be logged in to join the discussion
or Register

 

About this song

No information about this song.