Как на войне Uke tab by Агата Кристи

4 Chords used in the song: Am, G, C, E7

10/10
PrintAdd tab to your SongBook

Tablature / Chords (Full Song)

Font size: A- A A+

Album:  unknown
Difficulty: 
2.5
(Beginner)
Key: AmChords and Tablature
Am Am       G G         C C        E7 E7       Am Am       G G       C C       E7 E7
A|-0------3-2---------3--5-3-5-2--2-3-2-0------3-2-------3-5-3-5-2-----|
E|-0----0---3-----3-1-0--------0--------0----0---3---3-1-0-------0-4-5-|
C|-0--------2---------0--------2--------0--------2-------0-------2-----|
G|-2--2-----0---0-----0--------1--------2--2-----0-0-----0-------1-----|

Бас:
A|------------------------------3-0-2-3-0-3-5-7-3-5-7-5-3-2-|
E|--5-0-3-5-0-5-4-3-0-2-3-0-2-3-----------------------------|
C|----------------------------------------------------------|
G|----------------------------------------------------------|

Am Am G G C C E7 E7 Am Am
Ляг, отдохни и послушай, что я скажу:
G G C C E7 E7 Am Am
Я терпел, но сегодня я ухожу.
G G C C E7 E7 Am Am
Я сказал: успокойся и рот закрой.
G G C C E7 E7 Am Am
Вот и все, до свидания, черт с тобой.


Припев:
G G C C
Я на тебе, как на войне,
E7 E7 Am Am
А на войне, как на тебе.
G G C C
Но я устал, окончен бой,
E7 E7 Am Am
Беру портвейн, иду домой.
G G C C
Окончен бой, зачах огонь,
E7 E7 Am Am
И не осталось ничего.
G G C C
А мы живем, а нам с тобою
E7 E7 Am Am
Повезло назло.



A|----3-2---------5-3-5-2--2-3-2--------3-2---------5-3-5-------|
E|---0------3-1-0-------------------0-0-------3-1-0-------0-4-5-|
C|--------------------------------------------------------------|
G|-2------0----------------------2----------0-------------------|


Am Am G G C C E7 E7 Am Am
Боль, это боль как ее ты не назови
G G C C E7 E7 Am Am
Это страх, там где страх место нет любви
Am Am G G C C E7 E7 Am Am
Я сказал: "Успокойся и рот закрой"
G G C C E7 E7 Am Am
Вот и все до свидания черт с тобой

Припев:
Am Am G G C C
Я на тебе как на войне
E7 E7 Am Am
А на войне, как на тебе,
Am Am G G C C
Но я устал, окончен бой
E7 E7 Am Am
Беру портвейн иду домой
Am Am G G C C
Окончен бой, зачах огонь
E7 E7 Am Am
И не осталось ничего
Am Am G G C C
А мы живем, а нам с тобою
E7 E7 Am Am
Повезло назло

A|-0-7-3-2----8-7--5-3-5-2--2-3-2-0----7-3-2----8-7--5-3-5-7---|
E|---------3--------------------------0------3-----------------|
C|-------------------------------------------------------------|
G|----------0---------------------------------0-------------1-2|

Uke tab by , 11 Aug 2017

Tab comments (3)

Something to say?
Share your strumming patterns, chords or tips to play this tab! ;)
Filter by:
arina2003 avatar
а на припеве DU UU
04 Aug 2019
Strumming pattern
arina2003 avatar
я использую D DU UDU
04 Aug 2019
Strumming pattern
Pizzalenta avatar
какой бой?
26 Mar 2019
Question

Top Tabs & Chords by Агата Кристи, don't miss these songs!

About this song: Как на войне

No information about this song.

Did you cover Как на войне on your Ukulele? Share your work!
Submit a cover