Aerials Tab par System Of A Down

Tablature Ukulélé sans accords.

9.5/10
ImprimerAjouter cette tab à votre SongBook

Tablature / Chords (Chanson entière)

Font size: A- A A+

Artiste: 
Album: 
Année:  2001
Difficulté: 
5.5
(intermédiaire)
Tonalité: Cm, GmTablature (sans accords)
# Intro/Chorus
# Riff 1
A|----3-----3-----3-----3-----3-------3---|
E|--------------------------------1-------|
C|3-----2-----0-----0-----0-----0-------3-|
G|--0-----0-----0-----0-----0-------0-----|

A|--3-----3-----3-----3-------3-----3-----|
E|------------------------------1-----3---|
C|----2-----2-----2-----2-3---------------|
G|0-----0-----0-----0-------0-----0-----0-|

A|3-----3-------------3-----3-----3-----3-|
E|--4-----3---1---------------------------|
C|----------------3-----2-----0-----0-----|
G|----0-----0---0---0-----0-----0-----0---|

A|----3---|
E|--------|
C|0-----0-|
G|--0-----|

# Riff 2
A|3---3-1---3-----3-----3-----3---/5--3-1-|
E|------------3-----3-----3-----3---------|
C|----------------------------------------|
G|--0-----0-----0-----0-----0-------0-----|

A|--3-----3-----3-----3---3---3-5---3-6---|
E|----3-----3-----3-----3-----------------|
C|----------------------------------------|
G|0-----0-----0-----0-------0-----0-----0-|

A|3-8---3-6---5---3---3-1---3-----3-----3-|
E|----------------------------3-----3-----|
C|----------------------------------------|
G|----0-----0---0---0-----0-----0-----0---|

A|----3---|
E|3-----3-|
C|--------|
G|--0-----|

# Verses
# Ab5 Ab5 C5 C5 F5 F5 C5 C5 Eb5 Eb5 C5 C5 D5 D5 C5 C5
A|11--3---8---3---6---3---5---3-|
E|11--3---8---3---6---3---5---3-|
C|8---0---5---0---3---0---2---0-|
G|8---0---5---0---3---0---2---0-|

# Bridge
# Eb5 Eb5 D5 D5 C5 C5 F5 F5 Eb5 Eb5 D5 D5 Eb5 Eb5 F5 F5 G5 G5 Ab5 Ab5
A|6---5---3---8---6---5---6---8---10---11-|
E|6---5---3---8---6---5---6---8---10---11-|
C|3---2---0---5---3---2---3---5---7----8--|
G|3---2---0---5---3---2---3---5---7----8--|

# G5 G5 F5 F5 Eb5 Eb5 D5 D5 C5 C5
A|10---8---6---5---3-|
E|10---8---6---5---3-|
C|7----5---3---2---0-|
G|7----5---3---2---0-|

⇢ Cette tablature ne vous convient pas? Voir 1 autre(s) version(s)

Tab par , 11 janv. 2014

Commentaires (0)

Aucun commentaire :(
Besoin d'aide, envie de partager une astuce, ou simplement de parler de cette chanson? Commencez la discussion!

Commenter
Partagez vos rythmiques, vos accords ou vos astuces pour jouer cette tablature!

Top Tabs et Accords de System Of A Down, ne manquez pas ces chansons!

A propos de cette chanson: Aerials

Pas d'information sur cette chanson.

As-tu repris Aerials sur ton Ukulélé ? Partage ta reprise!
Ajouter une reprise