Still Waiting Tab par Sum 41

Tablature Ukulélé sans accords.

Ajouter cette tab à votre SongBook
Tablature / ChordsFont size: A- A A+

Vous ne savez pas comment lire une tablature ou un accord ?
Ne manquez pas nos cours:

Comment lire une tablature pour ukulélé
Comment lire un accord

So am I         Still waiting   For this world to stop hating
A-7-7-7-7-7-7-7-7-3-3-3-3-3-3-3-3-x-x-x-x-x-x-x-x-x-x-x-x-x-x-x-x--|
E-7-7-7-7-7-7-7-7-3-3-3-3-3-3-3-3-3-3-3-3-3-3-3-3-7-7-7-7-7-7-7-7--|
C-4-4-4-4-4-4-4-4-0-0-0-0-0-0-0-0-2-2-2-2-2-2-2-2-6-6-6-6-6-6-6-6--|
G-4-4-4-4-4-4-4-4-0-0-0-0-0-0-0-0-0-0-0-0-0-0-0-0-4-4-4-4-4-4-4-4--|

Can't find a good reason for this world to believe in
A-7-7-7-7-7-7-7-7-3-3-3-3-3-3-3-3-x-x-x-x-x-x-x-x-5-5-5-5-5-5-5-5~-|
E-7-7-7-7-7-7-7-7-3-3-3-3-3-3-3-3-3-3-3-3-3-3-3-3-5-5-5-5-5-5-5-5~-|
C-4-4-4-4-4-4-4-4-0-0-0-0-0-0-0-0-2-2-2-2-2-2-2-2-2-2-2-2-2-2-2-2~-|
G-4-4-4-4-4-4-4-4-0-0-0-0-0-0-0-0-0-0-0-0-0-0-0-0-2-2-2-2-2-2-2-2~-|

E E C C E E C C
A-10-9--10---10-9--10---10-9--10-12-10-9--5--|
E--------------------------------------------|
C-7--6--7----7--6--7----7--6--7--9--7--6--2--| 2X
G--------------------------------------------|

Verse 1
Drop dead a bullet to my head Your words are like a gun in hand
A-7-----------------------------7-----------5-------5-------5------|
E-7-77777777---5/6--5/6--3--5---7-77777777--3-------3-------3------|
C-4-44444444---4/5--4/5--2--4---4-44444444--2---4---2---4---2---4--|
G-4------------2/3--2/3--0--2---4-----------0-------0-------0------|
You can't change the state of the nation we just need some motivation
A-7---------------------------------------------------------|
E-7-77777777---5/6--5/6--3--5----3--3--3--3--7--7--7--7--7--|
C-4-44444444---4/5--4/5--2--4----2--2--2--2--6--6--6--6--6--| 2X
G-4------------2/3--2/3--0--2----0--0--0--0--4--4--4--4--4--|

Chorus
So am I Still waiting For this world to stop hating
A-7-7-7-7-7-7-7-7-3-3-3-3-3-3-3-3-x-x-x-x-x-x-x-x-x-x-x-x-x-x-x-x--|
E-7-7-7-7-7-7-7-7-3-3-3-3-3-3-3-3-3-3-3-3-3-3-3-3-7-7-7-7-7-7-7-7--|
C-4-4-4-4-4-4-4-4-0-0-0-0-0-0-0-0-2-2-2-2-2-2-2-2-6-6-6-6-6-6-6-6--|
G-4-4-4-4-4-4-4-4-0-0-0-0-0-0-0-0-0-0-0-0-0-0-0-0-4-4-4-4-4-4-4-4--|

Can't find a good reason for this world to believe in
A-7-7-7-7-7-7-7-7-3-3-3-3-3-3-3-3-x-x-x-x-x-x-x-x-x-x-x-x-x-x-x-x--|
E-7-7-7-7-7-7-7-7-3-3-3-3-3-3-3-3-3-3-3-3-3-3-3-3-7-7-7-7-7-7-7-7--|
C-4-4-4-4-4-4-4-4-0-0-0-0-0-0-0-0-2-2-2-2-2-2-2-2-6-6-6-6-6-6-6-6--|
G-4-4-4-4-4-4-4-4-0-0-0-0-0-0-0-0-0-0-0-0-0-0-0-0-4-4-4-4-4-4-4-4--|

Interlude
A-7-7-7--10-9--10--3-3-3--10-9--10--7-7-7--10-9--10-12-10-9--5--|
E-7-7-7------------3-3-3------------7-7-7-----------------------|
C-4-4-4--7--6--7---0-0-0--7--6--7---4-4-4--7--6--7--9--7--6--2--| 2X
G-4-4-4------------0-0-0------------4-4-4-----------------------|

Verse 2

Chorus

Bridge
This can't Last forever
A--7-7-7-7---3-3-3-3---x--x--x--x--x--x--x--x--|
E--7-7-7-7---3-3-3-3---3--3--3--3--7--7--7--7--|
C--4-4-4-4---0-0-0-0---2--2--2--2--6--6--6--6--| 2X
G--4-4-4-4---0-0-0-0---0--0--0--0--4--4--4--4--|
I feel so alonecan't help myself
A--7--7--7--7--------------7--7--7—7---------------|
E--7--7--7--7--3-3---5--5--7--7--7--7--3-3---5--5--|
C--4--4--4--4--2-2---4--4--4--4--4--4--2-2---4--4--| 2X
G--4--4--4--4--0-0---2--2--4--4--4--4--0-0---2--2--|
...to meto me to me...So
A---7-7-7-------3-3-3---------------------------|
E---7-7-7-------3-3-3-------3-3-3--------7-7-7--|
C---4-4-4-------0-0-0-------2-2-2--------6-6-6--|
G---4-4-4-------0-0-0-------0-0-0--------4-4-4--|
Or play...
A---7-7-7-7-7-7-7-7-7-7-7-7-101010101010-9-9-9-9-9-9--|
E---7-7-7-7-7-7-7-7-7-7-7-7-101010101010-9-9-9-9-9-9--|
C---4-4-4-4-4-4-4-4-4-4-4-4-7-7-7-7-7-7--6-6-6-6-6-6--|
G---4-4-4-4-4-4-4-4-4-4-4-4-7-7-7-7-7-7--6-6-6-6-6-6--|

Solo
A-----2--------------2--------------2-------------------------|
E--0-----3-2---2--0-----3-2---2--0-----3-2---2--3-2-2-3-5-3-2-|
C------------2--------------2--------------2------------------|
G-------------------------------------------------------------|
What have we done with a war that can't be won
A---7-7-7-7-7-7-7-7-7-7-7-7-101010101010-9-9-9-9-9-9--|
E---7-7-7-7-7-7-7-7-7-7-7-7-101010101010-9-9-9-9-9-9--|
C---4-4-4-4-4-4-4-4-4-4-4-4-7-7-7-7-7-7--6-6-6-6-6-6--| 2X
G---4-4-4-4-4-4-4-4-4-4-4-4-7-7-7-7-7-7--6-6-6-6-6-6--|

Chorus 2X

 

Commentaires (0)
Aucun commentaire :(
Besoin d'aide, envie de partager une astuce, ou simplement de parler de cette chanson? Commencez la discussion!

Vous devez être connecté pour participer à la discussion
ou Inscription

 

A propos de cette chanson

Pas d'information sur cette chanson.