Psychosocial Tab par Slipknot

Tablature Ukulélé sans accords.

Ajouter cette tab à votre SongBook
Tablature / ChordsFont size: A- A A+

Vous ne savez pas comment lire une tablature ou un accord ?
Ne manquez pas nos cours:

Comment lire une tablature pour ukulélé
Comment lire un accord

H                            H  
A |-------------------------------------------------------|
E |---------------4------3-5-------------------4------3-5-|
C |-4--4--4-4-4--*--4------4-4-4-4-4-4-4-4-4--*--4--------|
G |-------------------------------------------------------|
H
A |---------------------------------------------------------|
E |----------4------3-5-----5-5-5-5-6-6-6-6-----------------|
C |-4--4-4-4--*--4------4-4---------------------------------|
G |-----------------------------------------5-5-5-5-4-4-4-4-|

A |-----------------------------------------------------------------|
E |-5-5-5-5-6-6-6-6-----------------5-5-5-5-6-6-6-6-----------------|
C |-----------------------------------------------------------------|
G |-----------------5-5-5-5-4-4-4-4-----------------5-5-5-5-4-4-4-4-|

E |-0----------------------------------------------------|
A |-0--------------------------------------------0--3h5--|
A |------------------------------------------------------|
D |------------------------------------------------------|

A |----------11--------------6-6-6-6-7-7-7-7-9-9-9-9-8-8-8-8-|
E |-0--0-0-0------0--3h5-0-0---------------------------------|
C |------------*---------------------------------------------|
G |----------------------------------------------------------|

A |-----------------------------------------------------------------|
E |-----------------------------------------------------------------|
C |-3-3-3-3-4-4-4-4-6-6-6-6-5-5-5-5-3-3-3-3-4-4-4-4-6-6-6-6-5-5-5-5-|
G |-----------------------------------------------------------------|

E |-6-0-0-5-0-0-5h6-|----6-5-3-0-3-5-3-2-|
A |-6-0-0-5-0-0-5h6-|----6-5-3-0-3-5-3-2-|
A |-----------------|--------------------|
D |-----------------|-x4-----------------|

A |-6-6-6-6-6-6-6-1--1-1-1--1-1-5--5-5-5-5-5-5-3--3-3-6---6--6--|
E |-6-6-6-6-6-6-6-1--1-1--------5--5-5-5-5-5-5------------------|
C |----------------------5--5-5----------------7--7-7-10--10-10-|
G |-------------------------------------------------------------|

A |-6--6-6-6-6-6-6-1--1-1-1--1-1-5--5-5-5-5-5-5-5-5----0-12-\-|
E |-6--6-6-6-6-6-6-1--1-1--------5--5-5-5-5-5-5-5-5----0-12-\-|
C |-----------------------5--5-5------------------------------|
G |-----------------------------------------------------------|

A |-6-6-6-6-6-6-6-1--1-1-1--1-1-5--5-5-5-5-5-5-3--3-3-6---6--6--|
E |-6-6-6-6-6-6-6-1--1-1--------5--5-5-5-5-5-5------------------|
C |----------------------5--5-5----------------7--7-7-10--10-10-|
G |-------------------------------------------------------------|

A |-6--6-6-6-6-6-6-1--1-1-1--1-1-5--5-5-5-5-5-5-5-5-5-5-5-5-5-5-5-5-|
E |-6--6-6-6-6-6-6-1--1-1--------5--5-5-5-5-5-5-5-5-5-5-5-5-5-5-5-5-|
C |-----------------------5--5-5------------------------------------|
G |-----------------------------------------------------------------|

A |-------------------------------------------------|
E |-------------------------------------------------|
C |-4-4-----4-4-4---4-4-4---4-4-4-4---4-4-4-4-4---4-|
G |-------------------------------------------------|

E |------------------------------------0---J-\-|
A |-0-0-----0-0-0---0-0-0---0-0-0-0----0---J-\-|
A |--------------------------------------------|
D |--------------------------------------------|

A |-6-6-6-6-6-6-6-1--1-1-1--1-1-5--5-5-5-5-5-5-3--3-3-6--6-6-|
E |-6-6-6-6-6-6-6-1--1-1--------5--5-5-5-5-5-5---------------|
C |----------------------5--5-5----------------7--7-7-10--10-10-|
G |----------------------------------------------------------|

A |-6---6-6-6-6-6-6-1--1-1-1--1-1-5--5-5-5-5-5-5-3--3-3-6--6-6-|
E |-6---6-6-6-6-6-6-1--1-1--------5--5-5-5-5-5-5---------------|
C |------------------------5--5-5----------------7--7-7-10--10-10-|
G |------------------------------------------------------------|

A |-6---6-6-6-6-6-6-1--1-1-1--1-1-5--5-5-5-5-5-5-3--3-3-6--6-6-|
E |-6---6-6-6-6-6-6-1--1-1--------5--5-5-5-5-5-5---------------|
C |------------------------5--5-5----------------7--7-7-10--10-10-|
G |------------------------------------------------------------|

A |-6--6-6-6-6-6-6-1--1-1-1--1-1-5--5-5-5-5-5-5-5-5-5-5-5-5-5-5-5-5-|
E |-6--6-6-6-6-6-6-1--1-1--------5--5-5-5-5-5-5-5-5-5-5-5-5-5-5-5-5-|
C |-----------------------5--5-5------------------------------------|
G |-----------------------------------------------------------------|

E |-0-0---0-0----0-0-0---0-0----0-0-0-0---0-0-0-3--2-|
A |-0-0---0-0----0-0-0---0-0----0-0-0-0---0-0-0-3--2-|
A |--------------------------------------------------|
D |--------------------------------------------------|

E |-0-0---0-0----0-0-0---0-0----0-0-0-0--------------|
A |-0-0---0-0----0-0-0---0-0----0-0-0-0--------------|
A |--------------------------------------------------|
D |--------------------------------------------------|

 

Commentaires (0)
Aucun commentaire :(
Besoin d'aide, envie de partager une astuce, ou simplement de parler de cette chanson? Commencez la discussion!

Vous devez être connecté pour participer à la discussion
ou Inscription

 

A propos de cette chanson

Pas d'information sur cette chanson.