Duality Tab par Slipknot

Tablature Ukulélé sans accords.

Ajouter cette tab à votre SongBook
Tablature / ChordsFont size: A- A A+

Vous ne savez pas comment lire une tablature ou un accord ?
Ne manquez pas nos cours:

Comment lire une tablature pour ukulélé
Comment lire un accord

S                                           S S                   S 
-------------------------------------------------------------------
-----------------------------------------------3--3----------------
----4--4--4--4--4--4--4--4--4--4--4--4--4--5-6---------------------
-------------------------------------------------------------------
S S
-------------------------------------------------------------------
----3--3--3--3--3--3--3--6--6--------------3-----------------------
-------------------------------5--5--5--5-----5--4-----------------
-------------------------------------------------------------------
S S
-------------------------------------------------------------------
-------------------------------------------------3-----------------
----4--4--4--4--4--4--4--4--4--4--4--4--4--4--4--------------------
-------------------------------------------------------------------
S S
-------------------------------------------------------------------
----3--3--3--3--3--3--3--6--6--------------------------------------
-------------------------------5--5--5--5--5--5--4-----------------
-------------------------------------------------------------------
S S
-------------------------------------------------------------------
----------------------------------------------3--3-----------------
----4--4--4--4--4--4--4--4--4--4--4--4--4--5-----------------------
-------------------------------------------------------------------
S S S
-------------------------------------------------------------------
----3--3--3--3--3--3--3--6--6--------------------------------------
-------------------------------5-----------------------------------
-----------------------------------9-------------------------------
S S
-------------------------------------------------------------------
-------------------------------------------------3-----------------
----4--4--4--4--4--4--4--4--4--4--4--4--4--4--4--------------------
-------------------------------------------------------------------
S S S
-------------------------------------------------------------------
----3--3--3--3--3--3--3--6----------------3------------------------
---------------------------5--5--5--5--5-----5--4------------------
-------------------------------------------------------------------
S S
-------------------------------------------------------------------
-------------------------------------------------3-----------------
----4--4--4--4--4--4--4--4--4--4--4--4--4--4--4--------------------
-------------------------------------------------------------------
S S S S S
--------------------------------------[------]---------------------
----3--3--3--3--3--3--6-------------3-[------]---------------------
------------------------5--5--5--5----[------]---------------------
--------------------------------------[--8---]---------------------
S S S S
--------------------------------------[-------]---------------------
--------------------------------------[------]---------------------
--------------------------------------[------]---------------------
--------------------------------------[--12---]---------------------
/---0--0--0----0--0----0--0--0----0--1--0--3--3*------------------/
/---0--0--0----0--0----0--0--0----0--1--0--3----------------------/
/-----------------------------------------------------------------/
/-----------------------------------------------------------------/
/---0--0--0----0--0----0--0--0----0--1--0--6\---------------------/
/---0--0--0----0--0----0--0--0----0--1--0--6\--1*-----------------/
/-----------------------------------------------------------------/
/-----------------------------------------------------------------/
S ~ ~ ~ ~ ~ ~ ~ ~ S
-------------------------------------------------------------------
-------------5-------3---5-----------------------------------------
-----------------------------5---4---------------------------------
----4---7--------4-------------------------------------------------
/---J-~--7~--8~-----------8~--T-~--8~--7~-------------------------/
/----------------9~--T-~------------------------------------------/
/-----------------------------------------------------------------/
/-----------------------------------------------------------------/
/---3--3--3-3--3---3--3--3-3--3---3--3--3-3--3---3--3--2--2--1--1-/
/---3--3--3-3--3---3--3--3-3--3---3--3--3-3--3---3--3--2--2--1--1-/
/-----------------------------------------------------------------/
/-----------------------------------------------------------------/
S S S S S S S
---------------------------------------------------------------------------
----5---5--------------3---3--5---5--6---5-------------------------
-----X---X-2--2-55--55--X---X--X---X--X---X------------------------
----14---14--7--7--------12---12--14---14--15---14-------------------------
S S
----------------------------------------------------------------------
----6--5--3-----6--5-----6--5--3-----6--5-----6--5--3-----6--5--------
----------------------------------------------------------------------
-------------5--------5-----------5--------5-----------5--------5-----
/---0--1--0-------------------------1--1--1--1-1-I--1---------------3*-/
/---0--1--0---6--6--6--3--3--3--6---1--1--1--1-1-I--1--1--3--1--6\1----/
/----------------------------------------------------------------------/
/----------------------------------------------------------------------/
/---------------------------------------------0--0----------------/
/---0--0--0--3--3--3--1--1--1--5--5--5--3--3----------------------/
/-----------------------------------------------------------------/
/-----------------------------------------------------------------/
/---5--5--5--0--0--0--3--3--3--2--2--2--------0-------------------/
/---------------------------------------5--5----------------------/
/-----------------------------------------------------------------/
/-----------------------------------------------------------------/

 

Commentaires (0)
Aucun commentaire :(
Besoin d'aide, envie de partager une astuce, ou simplement de parler de cette chanson? Commencez la discussion!

Vous devez être connecté pour participer à la discussion
ou Inscription

 

A propos de cette chanson

Pas d'information sur cette chanson.