How To Train Your Dragon: Hiccup's Song (Riff) Tab par John Powell

Tablature Ukulélé sans accords.

Ajouter cette tab à votre SongBook
Tablature / ChordsFont size: A- A A+

Vous ne savez pas comment lire une tablature ou un accord ?
Ne manquez pas nos cours:

Comment lire une tablature pour ukulélé
Comment lire un accord

A----7----8----5--8------7------------7--8------7---5--7-8---7--------------------
E----8----10---7---------8------------8--10---------7--------8--------------------
C----7----7----7---------7---0---0----7--7----------7--------7----0---0-----------
G---------------------------------------------------------------------------------

A---------------------------------------------------------------------------------
E----5-5---7-7----5-3-0--------------5-5---7-7----5-3-0---------------------------
C--------------------------0----0-------------------------------------------------
G---------------------------------------------------------------------------------

A----3--3----5--7-7-------------7--10-5-7-7---------12--10---7-5--7---0-2-3-------
E----3--3----7--8-8-------------8--10-7-8-8---------12--12---8-7------2-----------
C----0-------7--7---0---0----7--------------9--7--------------------------0-------
G---------------------------------------------------------------------------------

A---------------------------------------------------------------------------------
E--0--1----1---0-------0--1--0----0-1-0------------5-5--7-7---5-3-0-----5-5-7-7-3-
C--------2--------0--0------------2--------0---0----------------------------------
G---------------------------------------------------------------------------------

A---3---3-5--2---2--3--0---------------------------------------
E-----3------3-----------3-3---1-1-0---------------------------
C-------------------------------------2-0----------------------
G--------------------------------------------------------------

 

Commentaires (1)
Vous devez être connecté pour participer à la discussion
ou Inscription

 

Bio_Trash avatar
I can't play it, so strange
08 Feb 2020
A propos de cette chanson

Pas d'information sur cette chanson.