Break The Distance (Riff) Tab par Ashton Edminster

Tablature Ukulélé sans accords.

Ajouter cette tab à votre SongBook
Tablature / ChordsFont size: A- A A+

Vous ne savez pas comment lire une tablature ou un accord ?
Ne manquez pas nos cours:

Comment lire une tablature pour ukulélé
Comment lire un accord

A|------3-----3-----3-----3-----3-----3-----3-----3-----3-----3-----3-----3--|
E|--1-----1-----1-----1-----1-----1-----1-----1-----0-----0-----0-----0------|
C|---------------------------------------------------------------------------|
G|----2-----2-----2-----2-----2-----2-----2-----2-----2-----2-----2-----2----|

A|------3-----3-----3-----3-----3-----3-----3-----3-----3-----3-----3-----3--|
E|--0-----0-----0-----0-----1-----1-----1-----1-----1-----1-----1-----1------|
C|---------------------------------------------------------------------------|
G|----2-----2-----2-----2-----2-----2-----2-----2-----2-----2-----2-----2----|

A|------3-----3-----3-----3-----3-----3-----3-----3-----5-----5-----5-----5--|
E|--0-----0-----0-----0-----0-----0-----0-----0------------------------------|
C|--------------------------------------------------2-----2-----2-----2------|
G|----2-----2-----2-----2-----2-----2-----2-----2-----2-----2-----2-----2----|

A|------5-----5-----5-----5--------------------------------------------------|
E|--------------------------0-3----------------------------------------------|
C|--2-----2-----2-----2-----0-0----------------------------------------------|
G|----2-----2-----2-----2---0-0----------------------------------------------|

A|------3-----3-----3-----3-----3-----3-----3-----3-----3-----3-----3-----3--|
E|--1-----1-----1-----1-----1-----1-----1-----1-----0-----0-----0-----0------|
C|---------------------------------------------------------------------------|
G|----2-----2-----2-----2-----2-----2-----2-----2-----2-----2-----2-----2----|

A|------3-----3-----3-----3-----5-----5-----5-----5-----5-----5-----5-----5--|
E|--0-----0-----0-----0------------------------------------------------------|
C|--------------------------2-----2-----2-----2-----2-----2-----2-----2------|
G|----2-----2-----2-----2-----2-----2-----2-----2-----2-----2-----2-----2----|

A|------3-----3-----3-----3-----3-----3-----3-----3--------------------------|
E|--0-----0-----0-----0-----0-----0-----0-----0------------------------------|
C|---------------------------------------------------------------------------|
G|----0-----0-----0-----0-----0-----0-----0-----0----------------------------|

A|-------3-----3-----3-----3-----3-----3-----3-----3------3-----3-----3-----3|
E|---1-----1-----1-----1-----1-----1-----1-----1------0-----0-----0-----0----|
C|---------------------------------------------------------------------------|
G|-----2-----2-----2-----2-----2-----2-----2-----2------2-----2-----2-----2--|

A|-------3-----3-----3-----3-----5-----5-----5-----5------5-----5-----5-----5|
E|---0-----0-----0-----0-----------------------------------------------------|
C|---------------------------2-----2-----2-----2------2-----2-----2-----2----|
G|-----2-----2-----2-----2-----2-----2-----2-----2------2-----2-----2-----2--|

A|-------3-----3-----3-----3-----3-----3-----3-----3---5---x-----------------|
E|---0-----0-----0-----0-----0-----0-----0-----0-------1--0x-----------------|
C|-----------------------------------------------------2--0x-----------------|
G|-----0-----0-----0-----0-----0-----0-----0-----0-----2--0x-----------------|

 

Commentaires (0)
Aucun commentaire :(
Besoin d'aide, envie de partager une astuce, ou simplement de parler de cette chanson? Commencez la discussion!

Vous devez être connecté pour participer à la discussion
ou Inscription

 

A propos de cette chanson

Pas d'information sur cette chanson.