Thunderstruck Tab par Ac Dc

Tablature Ukulélé sans accords.

ImprimerAjouter cette tab à votre SongBook
Tablature / ChordsFont size: A- A A+

Vous ne savez pas comment lire une tablature ou un accord ?
Ne manquez pas nos cours:

Comment lire une tablature pour ukulélé
Comment lire un accord

H  P H P H P H P H P H P H P H P H  P H P H P H P H P H P H P H P H  
-----2-|6-2---2-6-2---2-6-2---2-6-2---2-|6-2---2-6-2---2-6-2---2-6-2---2-|
-------|----2-------2-------2-------2---|----2-------2-------2-------2---|
-------|--------------------------------|--------------------------------|
-------|--------------------------------|--------------------------------|

|----2---2-------2-------2-------2-|-2---2-------2-------2-------2-|
|------2-----2-----2---2-----2-----|---2-----2-----2---2-----2-----|
|----------------------------------|-------------------------------|
|------4-----4-----4---4-----4-----|---4-----4-----4---4-----4-----|

|------|-----------------------|-2-----------0-2---|---0---0---2------------|
|------|-----------------------|---------------0---|-----------0------------|
|------|-----------------------|-6-----------4-----|---4---4----------------|
|------|-----------------------|-------------------|------------------------|

|-2------0------2----|-----------------------0---|------------------------|
|---------------0----|---------------------------|------------------------|
|-6------4------4----|-----------------------4---|------------------------|
|-4------2-----------|-----------------------2---|------------------------|

|--------------------------|-2---0---2\---------|--------------------0----|
|--------------------------|---------0----------|-------------------------|
|--------------------------|-6---4---4----------|--------------------4----|
|--------------------------|-4---2--------------|--------------------2----|

|---------------|----------||-2---0---------0-2--|-0-------2--------------|
|---------------|----------||-----------------0--|---------0--------------|
|---------------|----------||-6---4---------4----|-4----------------------|
|---------------|----------||--------------------|------------------------|

|--2---0------2-----|------------------------|-2---0------2-------------|
|--2---0------2-----|------------------------|-2---0------2-------------|
|-------------------|------------------------|--------------------------|
|-------------------|------------------------|--------------------------|

|------------2------|------------------------|------------2-------------|
|------------2------|------------------------|------------2-------------|
|-------------------|------------------------|--------------------------|
|-------------------|------------------------|--------------------------|
S
|-------------x-----|-4---4--------------------|-6-----------4--------------|
|-------------------|------------------------|--------------------------|
|-------------x-----|-4--4-------------------|-4----------4-----4--6----|
|-------------------|-4--4------4------------|-6----------4------b(--)--|

|---------------x/--|-2---------2----------0-|-0----------2-------------|
|---------------x/--|-0----------------0-2---|------------0-------------|
|-------------------|-----------6----------4-|-4------------------------|
|-------------------|------------------------|--------------------------|
S S
|---------------------------------|-------------------------------------|
|---5--2---2-------------------5--|-5-----------------------------------|
|--------4---2-------------6------|-----------------------------b(--)---|
|-4------------4------------------|----------------4-----------4--6-----|
P P P P P P
|---------------------------------------|-----------------------------------|
|---------------------------------------|--------------------------------b-|
|------2-4---6--4-2--6--4-2----6--4-2---|-2--4-----2------------4--4-------|
|----4----------------------4---------4-|--b(-)---r------4-------------14---|
P
||--2---0-----------|-------------------------||--2------0------------|
||--2---0-----------|-------------------------||--2------0------2-----|
||o-------------2---|-2----4-2-4--6----4-2---o||o---------------2-----|
||o-----------4---4-|-----------b(--)------4-o||o-------------4-----4-|
P SS
|--------------------------------||-----------|------------x---|
|-2----4---2-4--5-------4-2------||-----------|----------------|
|-2----4---2-4--6-------4-2----o-||-----------|------------x---|
|-------------b(--)----------4-o-||-----------|----------------|
||--2---------------2-|---------|-2-----------------2-|------------------||
||--------------2-4-0-|---------|---------------2-4-0-|------------------||
||o-6-----------------|---------|-6-------------------|-----------------o||
||o-------------------|---------|---------------------|-----------------o||

 

Commentaires (0)
Aucun commentaire :(
Besoin d'aide, envie de partager une astuce, ou simplement de parler de cette chanson? Commencez la discussion!

Vous devez être connecté pour participer à la discussion
ou Inscription

 

A propos de cette chanson

Pas d'information sur cette chanson.