Highway To Hell Tab par Ac Dc

Tablature Ukulélé sans accords.

Ajouter cette tab à votre SongBook
Tablature / ChordsFont size: A- A A+

Vous ne savez pas comment lire une tablature ou un accord ?
Ne manquez pas nos cours:

Comment lire une tablature pour ukulélé
Comment lire un accord

--------------|-------------|---------------------------------------||
--2--2--2-----|-3--3--3-----|-3--3--3----3--3--3----------2--2-----o||
--2--2--2-----|-2--2--0-----|-2--2--0----2--2--0-----2----2--2------||
--2--2--2-----|-0--0--0-----|-0--0--0----0--0--0-----0----2--2-----o||

Pre-Chorus

--------------|-------------|------------------------------------||
--2--2--2-----|-3--3--3-----|-3--3--3----3--3--3----------------o||
--2--2--2-----|-2--2--0-----|-2--2--0----2--2--0-----2-----------||
--2--2--2-----|-0--0--0-----|-0--0--0----0--0--0-----0----2-----o||



-------------------------------------------------|
-------------------------------------------------|
-2--2--2--2--2--2--2--2--2--2--2----2-2-2--------|
-0--0--0--0--0--0--0--0--0--0--0----0-0-0--0-----|
progessively louder/heavier ______________________
Chorus (3x)

-----------------------2--------2--2-----3----2------||
--2--------2--------2--3--------3--3-----3----3-----o||
--2--------2--------2--2--------2--2-----0----2------||
--2--------2--------2--0--------0--0-----0----0-----o||




----------------------2-------------------------------------------------|
-2--------2--------2--3-------------------------------------------------|
-2--------2--------2--2-------------------------------------------------|
-2--------2--------2--0-------------------------------------------------|

let ring (6 beats)
Verse (3x)

--------------|-------------|---------------------------------------||
--2--2--2-----|-3--3--3-----|-3--3--3----3--3--3----------2--2-----o||
--2--2--2-----|-2--2--0-----|-2--2--0----2--2--0-----2----2--2------||
--2--2--2-----|-0--0--0-----|-0--0--0----0--0--0-----0----2--2-----o||

Pre-Chorus

--------------|-------------|------------------------------------||
--2--2--2-----|-3--3--3-----|-3--3--3----3--3--3----------------o||
--2--2--2-----|-2--2--0-----|-2--2--0----2--2--0-----2-----------||
--2--2--2-----|-0--0--0-----|-0--0--0----0--0--0-----0----2-----o||




--------------------------------------------------------|
--------------------------------------------------------|
-2--2--2--2--2--2--2--2--2--2--2----2-2-2--2-2-2--2-----|
-0--0--0--0--0--0--0--0--0--0--0----0-0-0--0-0-0--0-----|
progessively louder/heavier ______________________
Chorus (3x)

-----------------------2--------2--2-----3----2------||
--2--------2--------2--3--------3--3-----3----3-----o||
--2--------2--------2--2--------2--2-----0----2------||
--2--------2--------2--0--------0--0-----0----0-----o||




----------------------2---------|
-2--------2--------2--3---------|
-2--------2--------2--2---------|
-2--------2--------2--0---------|

 

Commentaires (2)
Vous devez être connecté pour participer à la discussion
ou Inscription

 

JaxX avatar
flag for DE(ISO2) (Berlin)
Excellent !
07 Oct 2011
sexy uke420 avatar
flag for US(ISO2) (Napa )
Only cause you put time into it
09 Sep 2011
A propos de cette chanson

Pas d'information sur cette chanson.