Back In Black (Riff) Tab par Ac Dc

Tablature Ukulélé sans accords.

Ajouter cette tab à votre SongBook
Tablature / ChordsFont size: A- A A+

Vous ne savez pas comment lire une tablature ou un accord ?
Ne manquez pas nos cours:

Comment lire une tablature pour ukulélé
Comment lire un accord

# Back In Black - ACDC
# Ukulele Tab
# Tabbed By Declan (DaRkDeCiFy)

# E E D D D D D D A A A A A A

A--2----0-0-0----0-0-0---3p0----------------------------------
E--4----2-2-2----0-0-0-------3p0------------------------------
C--4----2-2-2----1-1-1------------2^p0------------------------
G--4----2-2-2----2-2-2----------------------------------------

# E E D D D D D D A A A A A A

A--2----0-0-0----0-0-0----------------------------------------
E--4----2-2-2----0-0-0----------------------------------------
C--4----2-2-2----1-1-1-------7-4-7-5-7-6-7-7------------------
G--4----2-2-2----2-2-2----------------------------------------
# ^^^^^^^^^^^^^^
# You could do this on the E E string.
# p = pull-off
# ^ = bend

 

Commentaires (5)
Vous devez être connecté pour participer à la discussion
ou Inscription

 

anchorsaway avatar
perfect!
31 May 2012
JaxX avatar
flag for DE(ISO2) (Berlin)
Your tab is perfect bro, don't see what's going wrong.
thx a lot for this one !
10 Dec 2011
Declan avatar
Sorry guys Its not my fault the tabs gone weird. This site has a script that blocks the description and makes the tab go funny :S
14 Jun 2010
Declan avatar
:D Thanks
07 Jun 2010
UkuleleSam avatar
flag for GB(ISO2) (Derby)
Really good! better than mine :L
07 Jun 2010
A propos de cette chanson

Pas d'information sur cette chanson.