Hells Bells Tab par Ac Dc

Tablature Ukulélé sans accords.

Ajouter cette tab à votre SongBook
Tablature / ChordsFont size: A- A A+

Vous ne savez pas comment lire une tablature ou un accord ?
Ne manquez pas nos cours:

Comment lire une tablature pour ukulélé
Comment lire un accord

|---------------0-|-(0)---0----2--|-0---------------|-------0----2--|
|---5-5-5---3-3-5-|--5------------|---5-5-5---3-3-5-|--5------------|
|---4-2-4---2---2-|-(2)-----0-----|---4-2-4---2---2-|-(2)-----0-----|
|-------------5---|-(-)-----0--0--|-------------5---|-(-)-----0--0--|

|-0---------------|------0----2--|-0---------------|
|---5-5-5---3-3-5-|--------------|---5-5-5---3-3-5-|
|---4-2-4---2---2-|--------0-----|---4-2-4---2---2-|
|-------------5---|--------0--0--|-------------5---|

|------0----2--|-----------------|--------------|
|--------------|-----------------|--------------|
|--------0-----|-----------------|--------------|
|--------0--0--|-----------------|--------------|

|--------------|-0---------------|------0----2--|
|--------------|---5-5-5---3-3-5-|--------------|
|--------------|---4-2-4---2---2-|--------0-----|
|--------------|-------------5---|--------0--0--|

|-----------------|--------------|---5-5-5--5--5-5-5-|
|-----------------|--------------|-------------------|
|-----------------|--------------|-------------------|
|-----------------|--------------|---2-0-2-(2)-2-0-2-|

|-0---------------|------0----2--|-------------------|
|---5-5-5---3-3-5-|--------------|-------------------|
|---4-2-4---2---2-|--------0-----|-------------------|
|-------------5---|--------0--0--|-------------------|

|--5--5-5-5----5--|---5-5-5--5--5-5-5-|-5-5-5-5----5--|
|-----------3--3--|-------------------|---------3--3--|
|-----------0--2--|-------------------|---------0--2--|
|-(2)-2-2-2-5--0--|---2-0-2-(2)-2-0-2-|-2-2-2-2-5--0--|

||o-(0)-------------0-|------0----2--|-0---------------|-------0----2-o||
||------5-5-5---3-3-5-|--------------|---5-5-5---3-3-5-|--5------------||
||------4-2-4---2---2-|--------0-----|---4-2-4---2---2-|-(2)-----0-----||
||----------------5---|--------0--0--|-------------5---|-(-)-----0--0--||

|---5-5-5--5--5-5-5-|--5--5-5-5----5--|---5-5-5--5--5-5-5-|-5-5-5-5----5--|
|-------------------|-----------3--3--|-------------------|---------3--3--|
|-------------------|-----------0--2--|-------------------|---------0--2--|
|---2-0-2-(2)-2-0-2-|-(2)-2-2-2-5--0--|---2-0-2-(2)-2-0-2-|-2-2-2-2-5--0--|

 

Commentaires (1)
Vous devez être connecté pour participer à la discussion
ou Inscription

 

UkeNotDead avatar
flag for FR(ISO2) (Paris)
L'intro n'est pas dans le morceau
Mais bon qui ne la connais pas !
25 Jan 2014
A propos de cette chanson

Pas d'information sur cette chanson.