Hells Bells (Riff) Tab par Ac Dc

Tablature Ukulélé sans accords.

Ajouter cette tab à votre SongBook
Tablature / ChordsFont size: A- A A+

Vous ne savez pas comment lire une tablature ou un accord ?
Ne manquez pas nos cours:

Comment lire une tablature pour ukulélé
Comment lire un accord

A|---10---8-------6--------8-------------------|
E|------8-----8--------6-----8----------------|
C|-0------------0--------0-----0--0------------|
G|----------------------------------------|



A|---10---8------6-------8---------------------|
E|------8----8-------6---8--------------------|
C|-------------0-------0------3-2-0--------------|
G|----------------------------------------|

 

Commentaires (1)
Vous devez être connecté pour participer à la discussion
ou Inscription

 

m1McCoy avatar
Identical to previous version already submitted
13 Mar 2013
A propos de cette chanson

Pas d'information sur cette chanson.