Back In Black (Solo) Tab par Ac Dc

Tablature Ukulélé sans accords.

Ajouter cette tab à votre SongBook
Tablature / ChordsFont size: A- A A+

Vous ne savez pas comment lire une tablature ou un accord ?
Ne manquez pas nos cours:

Comment lire une tablature pour ukulélé
Comment lire un accord

A----7---5-5-5--5---4-4-4--4---7-10-12-12---12-10-12-7-10-7-------|
E-0---------------------------------------------------------------|
C-----------------------------------------------------------------|
G-----------------------------------------3-----------------------|
A----7---5-5-5--5---4-4-4--4-------------------------|
E-0--------------------------------------------------|
G----------------------------------------------------|
D-----------------------------7-X-7-7-X-7-7-7h9------|

A-------------------------------------------------|
E---3-5--5----3--5------5---3-6--3-5----3---------|
C-4-----------------------------------4---4-------|
G--------------------4----------------------------|

A-------------------------------------------------|
E--------------------3--------3-------------------|
C-4-4----4--6----6------6---4----6--4-------------|
G-----6-------b----b(--)--------------------------|

A---------------------------------------------------------------|
E-5----5----5--------------------------------5-----3---5--------|
C---------------------------------------------------------------|
G---b----B----F-4--9--4---7---------9--7--4-----4--------F------|

A--------------------------------------------------------------------------|
E----5----5---6--5---3---5-----3-----------------------------5-----3-------|
C--------------------------------------------------------------------------|
G-7----b----b(--)-----------4-----9---7---7--7-----9--7---4-----4-----9----|

A-7-7-5-7----5-5-4-5----4-4-2-4---------------------|
E-0-0-0-0----0-0-0-0----0-0-0-0-5-------------------|
C---------------------------------------------------|
G---------------------------------b-4--9--7---------|

A-7-7-5-7----5-5-4-5----4-4-2-4---------|
E-0-0-0-0----0-0-0-0----0-0-0-0---------|
C--------------------------------9------|
G--------------------------------6-F----|

 

Commentaires (0)
Aucun commentaire :(
Besoin d'aide, envie de partager une astuce, ou simplement de parler de cette chanson? Commencez la discussion!

Vous devez être connecté pour participer à la discussion
ou Inscription

 

A propos de cette chanson

Pas d'information sur cette chanson.