Secret Valentine (Solo) Tab por We The Kings

tablatura Ukulele sin acordes.

Añadir esta tab a su SongBook
Tablature / ChordsFont size: A- A A+

¿ No sabe cómo leer una tablatura o un acorde ?

curso de ukulele

# This is the riff in the middle song, where it is just vocals and guitar.

4---4---4---4-6-3---3---3---3-4-1---1---1---1-3-4---------------
-4-4-4-4-4-4-4-4-4-4-4-4-4-4-4-4-4-4-4-4-4-4-4-4----------------
--5---5---5-------5---5---5-------5---5---5---------------------
----------------------------------------------------------------

# And if you are using this for the beginning into,you would play...

4---4---4---4----3---3---3---3---1---1---1---1---3---3---3---3--
-4-4-4-4-4-4-4-4--4-4-4-4-4-4-4-4-4-4-4-4-4-4-4-4-4-4-4-4-4-4-4-
--5---5---5---5----5---5---5---5---5---5---5---5---5---5---5---5
----------------------------------------------------------------

 

Comentarios (0)
Ningún comentario :(
¿Necesitas ayuda, un consejo para compartir o simplemente quieres hablar sobre esta canción? Comience la discusión

Debes iniciar sesión para unirte a la discusión
o Registrarse

 

Acerca de esta canción

No hay información por esta canción.