Beetles Tab por Warpaint

tablatura Ukulele sin acordes.

ImprimirAñadir esta tab a su SongBook
Tablature / ChordsFont size: A- A A+

¿ No sabe cómo leer una tablatura o un acorde ?

curso de ukulele

A---105--7-7h8-7-h8-7h8-7-5-----------|
E-0-----------------------------------|
C-------------------------------------|
G-------------------------------------|

A-5-2-5-2-5-2------5-2-5-2-5-5-2------|
E-------------------------------------|
C-------------------------------------|
G-------------3-0----------------3-0--|
A-7-7---7-7---7---7-7---7-7---7-----|
E-0-0---0-0---0---0-0---0-0---0-----|
D-----------------------------------|
G-----7-----7---7-----7-----7---7---|

A-------------------------------------------|
E------2-----2---3-----3-----3-2------------|
C-------------------------------------------|
G--5-5---5-5---5---5-5---5-5----------------|
S S S S S S S S S
A-7-7-7---------------------------------------------------------43-------|
E--------2-2-2--3-3-3--5--5--5----------------------------------------|
C---------------------------------------------------------------------|
G--------------------------------4--7----9--9--9---11--11--11------------|

A-----7----------------------------------------------|
E-2-2-0---------2----2---3----------3-2--------------|
C----------------------------------------------------|
G-0-0-0---4-4-4--4-4---4---4--4-5-4------------------|

A------0----4------------------------------------|
E--0---3---6-----------------------------------|
C--4---12---12-----------------------------------|
G--7---0---4-----------------------------------|

A-------------------------------------------------------------|
E------------6---------------3----6--6--3--6--3--6--3--6------|
C-------------------------------------------------------------|
G--7----4--9-------7---4--9-----------------------------------|

A-----------------------------------------------------------|
E-3--3--3--6--6-----3--3--3--6--6---------------------------|
C-----------------------------------------------------------|
G----------------4-----------------4------------------------|

A--------------------------------------------------------------|
E----------------------------------------------------------|
C----------------------------------------------------------|
G-7--9---16--5--7--9---16--5--7--9--16--5--7--9--16--5--7--9---|

A-----------------------------------------------------------------------|
E--------------------------------------------------------------------|
C--------------------------------------------------------------------|
G-16-5--7--9--16--5--4--7--5--4--7--5--4--7--16--4--7--5--4--7--5--4----|

A------------------------------------------------------------|
E-----------------------------------------------------------|
C-----------------------------------------------------------|
G-7--5--4--7--16---------------------------------------------|

A-2--2-2--2-2--2---2------------------------------------------------|
E-0----0--5-0--3---2-3-2--------------------------------------------|
C----4----4----4---4------------------------------------------------|
G----4--------------------------------------------------------------|

A--4----7----------------------|
E----------------------------|
C--10---7---------------------|
G--4---10---------------------|

A-------------------------------------|
E------5----------5-------------------|
C--4-----2----4-----2-----------------|
G-4-4-------4--4----------------------|

 

Comentarios (0)
Ningún comentario :(
¿Necesitas ayuda, un consejo para compartir o simplemente quieres hablar sobre esta canción? Comience la discusión

Debes iniciar sesión para unirte a la discusión
o Registrarse

 

Acerca de esta canción

No hay información por esta canción.