Schism Tab por Tool

tablatura Ukulele sin acordes.

Añadir esta tab a su SongBook
Tablature / ChordsFont size: A- A A+

¿ No sabe cómo leer una tablatura o un acorde ?

curso de ukulele

# Low-G tuning

# Once

A|--------------------------|
E|--------------------------|
C|--3-2-5-7----3-2-5-7------|
G|--0-3-5-8----0-3-5-8------|

# Repeat ad nauseum

A|----------------------------------------|
E|----------------------------------------|
C|--------3-2-0---------3-2-5-0-----------|
G|-0h3h5-0-0-----0h3h5-0-0-0--------------|

# Repeat ad nauseum

A|----------------------------------------------------|
E|----------------------------------------------------|
C|-4-2-4--7-6-7--4-2-4--9-8-9--2-1-2--4-3-4--4-2-0-2--|
G|----------------------------------------------------|

 

Comentarios (2)
Debes iniciar sesión para unirte a la discusión
o Registrarse

 

PriestOfKarp avatar
Formatting looks different than how I typed it. Copy the format above with the numbers in my other comment
14 Feb 2019
PriestOfKarp avatar
This tab is for the bass line, which is played mostly on the E and A string, so it makes more sense to just copy the actual bass tabs. Play the first part the same, but the second part should be:
A|---------10--9--------------10-9-12-----|
E|--0h10h12--0--0-----0h10h12---0-0--0----|
C|----------------------------------------|
G|----------------------------------------|
14 Feb 2019
Acerca de esta canción

No hay información por esta canción.