46 And 2 Tab por Tool

tablatura Ukulele sin acordes.

Añadir esta tab a su SongBook
Tablature / ChordsFont size: A- A A+

¿ No sabe cómo leer una tablatura o un acorde ?

curso de ukulele

S                S      S       
A|-------------------------------------------|
E|-----------------------------------------|
C|-----------------------------------------| G|-9---7---10--9-----9---7---10--9----5-7----|
S S S S S
A|-----------------------------------------------------------------------------|
E|-------------------------------------------------------------------------|
C|-------------------------------------------------------------------------|
G|-9---7---10--9-----9---7---10--9-----9---7---10--9-----9---7---10--9---5-7---|
A|-0---------------3-----------------0-----|
E|-0---------------3-----------------0-----|
C|-2---------------5-----------------2-----|
G|-----------------------------------------|
A|------12--------------------12----15---------------12----15--------0---|
E|-12--------------------12----------------------15----------------0---|
C|--------------------------------------------------------------2---|
G|-----------7------------------------------------------------------|
S S
A|-----------|
E|-3-2-------|
C|-----0-2---|
G|-----------|
A|-0---------------3-----------------0---------|
E|-0---------------3-----------------0---------|
C|-2---------------5-----------------2---------|
G|-----------------------------------------7---|
A|------12------------------12----15-------------12----15---------------12---------|
E|-12------------------12--------------------15------------------12--------------|
C|---------------------------------------------------------------------------|
G|-----------7----------------------------------------------------------7----|

A|-------------------------------------------------------------------------------------------|
E|----------------------------------------------------------------------|
C|-14--14--14--14--14--14--14-----12--12--12--12--12--12--12----11--11--11--11--11--11--11---|
G|-14--14--14--14--14--14--14-----14--14--14--14--14--14--14----12--12--12--12--12--12--12---|

A|-5-5-5-5-5-5-5-5-5-5--3-3-3-3-3-3-3-3-3-3--2-2-2-2-2-2-2-2-2-2--|
E|----------------------------------------------------------------|
C|----------------------------------------------------------------|
G|-2-2-2-2-2-2-2-2-2-2--2-2-2-2-2-2-2-2-2-2--0-0-0-0-0-0-0-0-0-0--|

A|-5------------------------|
E|--------------------------|
C|-4----2--2-2--2-2--2-2----|
G|-2--------------------B|--|
H S H S
A|--------------------------------------------------|
E|-------------------------------------------------|
C|-4------4-----------4---------4------------------| G|----9------7----9------10--9------7----9----5-7---|
A|-0--12----10-h12----13-\12----10-h12----8/10---|
E|-0--12----10-h12----13-\12----10-h12----8/10---|
C|-2--14----12--14----15--14----12--14----10-12---| G|---------------------------------------|
A|-0----0----0----0----|
E|-0----0----0----0----|
C|-2----2----2----2----|
G|---------------------|
S S S
A|--------------------------------------------|
E|------------------------------------------|
C|------------------------------------------| G|-9---7---10--9-----9---7---10--9----5-7-----|
S S S
A|--------------------------------------------|
E|------------------------------------------|
C|------------------------------------------| G|-9---7---10--9-----9---7---10--9----5-7-----|

A|--------------------------------|
E|--------------------------------|
C|-4-----4-----4-----4-----4------|
G|---9-----9-----9-----9-----9----|
S S
A|------------------------------------------------|
E|-----------------------------------------------|
C|-4------4----------4---------4-----------------| G|----9------7---9------10--9------7---9----5-7---|
A|-0--12----10-h12----13-\12----10-h12----8/10----|
E|-0--12----10-h12----13-\12----10-h12----8/10----|
C|-2--14----12--14----15--14----12--14----10-12----| G|----------------------------------------|
A|-0--12----0--12----0--12----0--12----|
E|-0--12----0--12----0--12----0--12----|
C|-2--14----2--14----2--14----2--14----|
G|---------------------------------|
A|-5h7--0-0--3h5--0--5h7--0--3h5--5h7--0--0--|
E|-5h7--0-0--3h5--0--5h7--0--3h5--5h7--0--0--|
C|-7-9--2-2--5-7--2--7-9--2--5-7--7-9--2--2--| G|-------------------------------------------|
A|-0--0-0-12-\\\3--3--3-3-3h5--|
E|-0--0-0-12-\\\3--3-----------|
C|-2--2-2-14----5--5-----------| G|----------------------------|
S S
A|-----------------------|------------------------|
E|----------------------|-----------------------|
C|-----4------4---------|------4------4---------| G|-9------7------10--9---|--9------7------10--9---|
S S
A|-----------------------|------------------------|
E|----------------------|-----------------------|
C|-----4------4---------|------4------4---------|
G|-9------7------10--9---|--9------7------10--9---|
A|-12---10----13-\12-----12---10----13-\12---|
E|-12---10----13-\12-----12---10----13-\12---|
C|-14---12----15--14-----14---12----15--14---| G|-----------------------------------|
S S
A|----------8------------------------|
E|----------------------------------|
C|-9---7----10--9--------------------| G|-7---5----8--7---7---5---8--7-----|

A|----------------------------------------------|
E|----------------------------------------------|
C|-------------------------------------------b--|
G|-7----5----8----7----5----8----7----5----8----|

A|---------------------------------|
E|-------------------------------|
C|-------------------------------| G|-9--7---10--9----9--7---10--9----|
A|-12---10---13-\12-----12---10---13-\12----8h10---|
E|-12---10---13-\12-----12---10---13-\12----8h10---|
C|-14---12---15--14-----14---12---15--14----10-12---| G|----------------------------------------|
A|-12---10---13-\12-----15---10---12----1--|
E|-12---10---13-\12-----15---10---12----1--|
C|-14---12---15--14-----17---12---14----3--|
G|----------------------------------|
A|-0--12---10-h12----13-\12----10-h12----8h10---| E|-0--12---10-h12----13-\12----10-h12----8h10---|
C|-2--14---12--14----15--14----12--14----10-12---|
G|--------------------------------------|
A|-0--0--0--0--0--0--0--0--0--0--0---|
E|-0--0--0--0--0--0--0--0--0--0--0---|
C|-2--2--2--2--2--2--2--2--2--2--2---|
G|-----------------------------------|

 

Comentarios (0)
Ningún comentario :(
¿Necesitas ayuda, un consejo para compartir o simplemente quieres hablar sobre esta canción? Comience la discusión

Debes iniciar sesión para unirte a la discusión
o Registrarse

 

Acerca de esta canción

No hay información por esta canción.