Undertale Theme- Bonetrousle (Riff) Tab por Toby Fox

tablatura Ukulele sin acordes.

Añadir esta tab a su SongBook
Tablature / ChordsFont size: A- A A+

¿ No sabe cómo leer una tablatura o un acorde ?

curso de ukulele

|-----3-6--3--2-3-5--3--------------------------2---------|  
|-----------------------------------2---------3-----------|
|-0-------------------------3-0-2-3------3-0------0-2-0---|
|---0--------------------0-------------0------------------|
S ~
|-----3-6----------------6-3-2-3-5-6-3------2----------|
|---------4-6-5-3-5-6-3--------------------------------|
|-0------------------------------------------3---------|
|---0-------------------------------------0-----2-4/5-|

 

Comentarios (5)
Debes iniciar sesión para unirte a la discusión
o Registrarse

 

Temmie8585 avatar
flag for PH(ISO2) (Ormoc City)
noice just add a little "backbone" into it (bad joke :
14 Nov 2020
siaoaks avatar
*spaghetti intensifies*
31 Jul 2020
Seals avatar
flag for US(ISO2) (Jackson)
All 5 stars are blue now! That’s my attack!
01 Jun 2020
HitOrMiss avatar
nyeh he he
29 Dec 2018
Talisaur avatar
flag for US(ISO2) (Bakersfield)
The song of legends
13 Aug 2018
Acerca de esta canción

No hay información por esta canción.