Angels Tab por The Xx

tablatura Ukulele sin acordes.

Añadir esta tab a su SongBook
Tablature / ChordsFont size: A- A A+

¿ No sabe cómo leer una tablatura o un acorde ?

curso de ukulele

Intro

A|----------------------4----4----4----4-------|
E|-2----2----2----2--------5----5----5----5----|
C|----2----2----2----2-------------------------|
G|---------------------------------------------|

A|---------------------------------------------|
E|-4----4----4----4-----2----2----2----2-------|
C|----4----4----4----4-----2----2----2---2-----|
G|---------------------------------------------|

Chorus: 'They would be as in love with you as I am'

A|---------------|
E|----------9----|
C|--6----8-------|
G|---------------|

x3

Second first the same until:

A|----------------------4----4----4----4-------|
E|-2----2----2----2--------5----5----5----5----|
C|----2----2----2----2-------------------------|
G|---------------------------------------------|

A|-4----4----4----4----4----4----4----4----4---|
E|----5----5----5----5----5----5----5----5-----|
C|---------------------------------------------|
G|---------------------------------------------|

A|-4----4------|
E|----5----5---|
C|-------------|
G|-------------|

Bridge: 'And leaving without them'

A|---------------|
E|-9-------------|
C|----8--6-------|
G|---------------|

Final Verse: 'And with words unspoken'

A|---4----------4-----------|
E|-2----4--2--2----4--2-----|
C|--------------------------|
G|--------------------------|

Final chorus is nothing.
enjoy :)

 

Comentarios (1)
Debes iniciar sesión para unirte a la discusión
o Registrarse

 

blastbird avatar
great. Simple and Great.
13 Nov 2018
Acerca de esta canción

No hay información por esta canción.