Seven Nation Army (Solo) Tab por The White Stripes

tablatura Ukulele sin acordes.

ImprimirAñadir esta tab a su SongBook
Tablature / ChordsFont size: A- A A+

¿ No sabe cómo leer una tablatura o un acorde ?

curso de ukulele

A|---------------------------------------|
E|---------------------------------------|
C|---------------------------------------|
G|-4~------7~-6~----4--4-7-9-7-7s9-7-6~--|

A|-------------------------------------------|
E|-------------------------------------------|
C|-------------------------------------------|
G|-4--4-7-9-2-/7~-6~----4--4-7-9-7-7s9-7-6~--|

A|-7--7-10-7-7-/10~-9~----7--7-10-12-10-10s12-10-9--|
E|--------------------------------------------------|
C|--------------------------------------------------|
G|--------------------------------------------------|

A|-7--7-10-7-7-10b12-9~----7--7-9-7-7-9-7-------|
E|----------------------------------------8-7~--|
C|----------------------------------------------|
G|----------------------------------------------|

 

Comentarios (0)
Ningún comentario :(
¿Necesitas ayuda, un consejo para compartir o simplemente quieres hablar sobre esta canción? Comience la discusión

Debes iniciar sesión para unirte a la discusión
o Registrarse

 

Acerca de esta canción

No hay información por esta canción.