Seven Nation Army Tab por The White Stripes

tablatura Ukulele sin acordes.

Añadir esta tab a su SongBook
Tablature / ChordsFont size: A- A A+

¿ No sabe cómo leer una tablatura o un acorde ?

curso de ukulele

~ - vibrato
s - legato slide
/ - slide up
b - bend

Verse:
A|--------------------|
E|--------------------|
C|--5--5-8-5-3-1--0---|x12
G|--------------------|

Bridge:
A|-----------------------------------|
E|--3-3-3-3-3-3-3-3-5-5-5-5-5-5-5-5--|
C|--2-2-2-2-2-2-2-2-4-4-4-4-4-4-4-4--|
G|-----------------------------------|

Chorus:
A|--7--7-10-7-5-3--2--|
E|--7--7-10-7-5-3--2--|
C|--------------------|
G|--------------------| \
x2
A|--7--7-10-7-5-3-5-3-2--|/
E|--7--7-10-7-5-3-5-3-2--|
C|-----------------------|
G|-----------------------|

Bridge:
A|-----------------------------------|
E|--3-3-3-3-3-3-3-3-5-5-5-5-5-5-5-5--|
C|--2-2-2-2-2-2-2-2-4-4-4-4-4-4-4-4--|
G|-----------------------------------|

Verse:
A|--------------------|
E|--------------------|
C|--5--5-8-5-3-1--0---|x12
G|--------------------|

Bridge:
A|-----------------------------------|
E|--3-3-3-3-3-3-3-3-5-5-5-5-5-5-5-5--|
C|--2-2-2-2-2-2-2-2-4-4-4-4-4-4-4-4--|
G|-----------------------------------|

Solo:
A|---------------------------------------|
E|---------------------------------------|
C|---------------------------------------|
G|-4~------7~-6~----4--4-7-9-7-7s9-7-6~--|

A|-------------------------------------------|
E|-------------------------------------------|
C|-------------------------------------------|
G|-4--4-7-9-2-/7~-6~----4--4-7-9-7-7s9-7-6~--|

A|-7--7-10-7-7-/10~-9~----7--7-10-12-10-10s12-10-9--|
E|--------------------------------------------------|
C|--------------------------------------------------|
G|--------------------------------------------------|

A|-7--7-10-7-7-10b12-9~----7--7-9-7-7-9-7-------|
E|----------------------------------------8-7~--|
C|----------------------------------------------|
G|----------------------------------------------|

Bridge:
A|-----------------------------------|
E|--3-3-3-3-3-3-3-3-5-5-5-5-5-5-5-5--|
C|--2-2-2-2-2-2-2-2-4-4-4-4-4-4-4-4--|
G|-----------------------------------|

Verse:
A|--------------------|
E|--------------------|
C|--5--5-8-5-3-1--0---|x12
G|--------------------|

Bridge:
A|-----------------------------------|
E|--3-3-3-3-3-3-3-3-5-5-5-5-5-5-5-5--|
C|--2-2-2-2-2-2-2-2-4-4-4-4-4-4-4-4--|
G|-----------------------------------|

Chorus:
A|--7--7-10-7-5-3--2--|
E|--7--7-10-7-5-3--2--|
C|--------------------|
G|--------------------| \
x2
A|--7--7-10-7-5-3-5-3-2--|/
E|--7--7-10-7-5-3-5-3-2--|
C|-----------------------|
G|-----------------------|

End:
A|--7--2--|
E|--7--0--|
C|--------|
G|--------|

 

Comentarios (0)
Ningún comentario :(
¿Necesitas ayuda, un consejo para compartir o simplemente quieres hablar sobre esta canción? Comience la discusión

Debes iniciar sesión para unirte a la discusión
o Registrarse

 

Acerca de esta canción

No hay información por esta canción.