Rag And Bone (Riff) Tab por The White Stripes

tablatura Ukulele sin acordes.

Añadir esta tab a su SongBook
Tablature / ChordsFont size: A- A A+

¿ No sabe cómo leer una tablatura o un acorde ?

curso de ukulele

A||---------------------------------------------|
E||o-------------------------------8------------|
C||o-9----9----9----9----9p---7-9-------------9-|
G||---------------------------------------------|


|---------------------------------------------|
|-----------------------------10--8-----------|
|--9----9----9----9----9p---7---------------9-|
|---------------------------------------------|


|-------------------------------------------------|
|----------------------------------8-----8-10--8--|
|--9----9----9----9p---7-9p---7-9-----------------|
|-------------------------------------------------|

# (repeat ad
# nauseum)
|----------------------------------------------------||
|-----8-10--8-----8-10--8-----8-10S--12----12--8----o||
|-------------------------------------------------9-o||
|----------------------------------------------------||


# If you would really like to have the entire song tabbed,
# either send me a message (preferably) or leave a comment
# explaining why your life will not be complete until you have a
# tab of "Rag and Bone" in its entirety and I'll get started
# working on it.

 

Comentarios (1)
Debes iniciar sesión para unirte a la discusión
o Registrarse

 

caulin11 avatar
id like the whole song please :)
28 Apr 2012
Acerca de esta canción

No hay información por esta canción.