I Think I Smell A Rat Tab por The White Stripes

4 Acordes utilizados en la canción: Am, G, Em, Dm

Añadir esta tab a su SongBook
Tablature / ChordsFont size: A- A A+

¿ No sabe cómo leer una tablatura o un acorde ?

curso de ukulele

-----2--3--2------------- 
------------------3------
-------------------------

--2-----------2--------2-

Am Am G G Am Am

-----2--3--2-------------
------------------3------
-------------------------

--2-----------2--------2-

Am Am G G Em Em

------------------------
----1----1--0------0----
-4--------------2-------
------0-----------------

Em Em Dm Dm Em Em

------------------------
----1----1--0------0----
-4--------------2-------
------0-----------------

Em Em G G Am Am


Em Em
Oh I think I smell a rat
Am Am
I think I smell a rat
Em Em
all you little kids seem to think you know just where it's at
Am Am
Oh I think I smell a rat
Em Em
walking down the street carrying a baseball bat
Am Am
Oh I think I smell a rat


Em Em
Oh I think I smell a rat
Am Am
Oh I think I smell a rat
Em Em
all you little kids seem to think you know just where is at
Am Am
Oh I think I smell a rat
Em Em
using your mother and father for a welcome mat
Am Am
Oh I think I smell a rat


-----2--3--2-------------
------------------3------
-------------------------

--2-----------2--------2-

Am Am G G Am Am

-----2--3--2-------------
------------------3------
-------------------------

--2-----------2--------2-

Am Am G G Em Em

------------------------
----1----1--0------0----
-4--------------2-------
------0-----------------

Em Em Dm Dm Em Em

------------------------
----1----1--0------0----
-4--------------2-------
------0-----------------

Em Em G G Am Am

 

Comentarios (0)
Ningún comentario :(
¿Necesitas ayuda, un consejo para compartir o simplemente quieres hablar sobre esta canción? Comience la discusión

Debes iniciar sesión para unirte a la discusión
o Registrarse

 

Acerca de esta canción

No hay información por esta canción.