Pain (give Me Sympathy) Tab por The Upholsterers

tablatura Ukulele sin acordes.

Añadir esta tab a su SongBook
Tablature / ChordsFont size: A- A A+

¿ No sabe cómo leer una tablatura o un acorde ?

curso de ukulele

A|----------------------------------------|
E|-2-2-----5-5-----7-7--------------------|
C|-1-1--1--4-4--4--6-6--------------------| (intro)
G|----------------------------------------|


A|----------------------------------------|
E|-7-5-5---7-5-5-7------------------------|
C|-6-4-4---6-4-4-6------------------------|
G|----------------------------------------|


A|----------------------------------------|
E|-2-2--2--5-5--5--7-7--------------------|
C|-1-1--1--4-4--4--6-6--------------------|
G|----------------------------------------|


A|---------------------------------|
E|-7-5-5---7-5-5-7-----------------|
C|-6-4-4---6-4-4-6-----------------|
G|---------------------------------|


A|----------------------------|
E|-2-2-2-2--5-5-5-5--7-7-7-7--|
C|-1-1-1-1--4-4-4-4--6-6-6-6--| (Chorus)
G|----------------------------|


A|---------------------------------|
E|-7-5-5---7-5-5-7-----------------|
C|-6-4-4---6-4-4-6-----------------|
G|---------------------------------|

# The entire song is based off of this riff. You can put the pieces together.

 

Comentarios (0)
Ningún comentario :(
¿Necesitas ayuda, un consejo para compartir o simplemente quieres hablar sobre esta canción? Comience la discusión

Debes iniciar sesión para unirte a la discusión
o Registrarse

 

Acerca de esta canción

No hay información por esta canción.