Fell In Love With A Girl Tab por The White Stripes

6 Acordes utilizados en la canción: A, Bm, D, E, B, F#m

Añadir esta tab a su SongBook
Tablature / ChordsFont size: A- A A+

¿ No sabe cómo leer una tablatura o un acorde ?

curso de ukulele

{ There are two riffs in this song. I wrote the power chords into chords in the key of A A major, because that is what I think the song was written in (either that or Bm Bm). You'll have to listen to the song to find out when the riff change is. It's not hard.}

RIFF A A

Bm Bm A A D D
^ ^ v ^ v ^ ^ ^ v ^ v ^ ^ ^ v ^ v ^
A||--2----2--2----2--2--2--|--0----0--0----0--0--0--|--5----5--5----5--5--5--|
E||--2----2--2----2--2--2--|--0----0--0----0--0--0--|--2----2--2----2--2--2--|
C||--2----2--2----2--2--2--|--1----1--1----1--1--1--|--2----2--2----2--2--2--|
G||--4----4--4----4--4--4--|--2----2--2----2--2--2--|--2----2--2----2--2--2--|


E E
^ ^ v ^ v ^
--2----2--2----2--2--2--||
--0----0--0----0--0--0--||
--4----4--4----4--4--4--||
--1----1--1----1--1--1--||


RIFF B B

F#m F#m A A D D
^ ^ v ^ v ^ ^ ^ v ^ v ^ ^ ^ v ^ v ^
A||--4----4--4----4--4--4--|--0----0--0----0--0--0--|--5----5--5----5--5--5--|
E||--2----2--2----2--2--2--|--0----0--0----0--0--0--|--2----2--2----2--2--2--|
C||--1----1--1----1--1--1--|--1----1--1----1--1--1--|--2----2--2----2--2--2--|
G||--2----2--2----2--2--2--|--2----2--2----2--2--2--|--2----2--2----2--2--2--|


E E
^ ^ v ^ v ^
--2----2--2----2--2--2--||
--0----0--0----0--0--0--||
--4----4--4----4--4--4--||
--1----1--1----1--1--1--||


Tablature Legend
---------------
^ - brush up
v - brush down

 

Comentarios (4)
Debes iniciar sesión para unirte a la discusión
o Registrarse

 

theadonat avatar
sounds bettr with B rather than Bm
05 Jul 2010
HaraldN avatar
flag for NO(ISO2) (Oslo)
Thanks for the comments :) Yes, B does sound better than Bm, I'll change it. It's all power chords in the original, so it's hard to translate it to real chords. So that means the key would be E major? I'm kind of a newb in music theory..
18 Jun 2010
Padday avatar
B (as appoed to Bm) sounds better to me
15 Jun 2010
Ukulelinator avatar
Sounds pretty good! Awesome job!
07 Jun 2010
Acerca de esta canción

No hay información por esta canción.