She Drives Me Crazy (Intro) Tab por The Fine Young Cannibals

4 Acordes utilizados en la canción: D,G,Bm,A

Añadir esta tab a su SongBook
Tablature / ChordsFont size: A- A A+

¿ No sabe cómo leer una tablatura o un acorde ?

curso de ukulele

# Repeat 2x
A|-5-5-3-3-------------------------------|
E|-5-5-3-3-------------------------------|
C|-2-2-0-0-------------------------------|
G|---------------------------------------|


# Then repeat this 2x as well
# D D (let ring) G G (let ring) Bm Bm(let ring) A A (let ring)
A|-0---------- 2----------2-----------0-------|
E|-2---------- 3----------2-----------0-------|
C|-2---------- 2----------2-----------1-------|
G|-2---------- 0----------4-----------2--------|

 

Comentarios (0)
Ningún comentario :(
¿Necesitas ayuda, un consejo para compartir o simplemente quieres hablar sobre esta canción? Comience la discusión

Debes iniciar sesión para unirte a la discusión
o Registrarse

 

Acerca de esta canción

No hay información por esta canción.