Blackbird Tab por The Beatles

tablatura Ukulele sin acordes.

6/10
ImprimirAñadir esta tab a su SongBook

Tablature / Chords (

Font size: A- A A+

Artista: 
Album: 
Año:  1968
Key: desconocidotablatura (sin acordes )
S                                  
A|---2-------0-------2-------------------------------------------|
E|---3-------------------------3-------3-------3-------3-------|
C|-------------------2-----------------------------------------|
G|-------0---5---0-------0-----16---0-4---4-0---16---0-4---4-0---|
S
A|---2-------0-------2-------------------------------------------|
E|---3-------------------------3-------3-------3-------3-------|
C|-------------------2-----------------------------------------|
G|-------0---5---0-------0-----16---0-4---4-0---16---0-4---4-0---|

A|-----------1--------2--------3-----------4----------------3----------------|
E|----------(3)-------------(5)---------------3---3-----------3---3-----|
C|---0-------1-------2-------3----------4-------4-------3-------3-------|
G|---9---0---12---0---11---0---14---0------12---0-------0---12---0-------0---|

A|---2--------1--------------7---7------------6---6-----|
E|----------(3)---------------------------------------|
C|---2-------1-------0-------0--------0-------0-------|
G|---11---0---12---0---9---0-------0----8---0-------0---|

A|---2-----5-2-5-----0-----4-0-4------3-----3---3------2-----2----2------|
E|-----------------------------------------------------3--------3--------|
C|---2--------------------------------2-------2--------------------------|
G|-------0-------0---6---0-------0--------0-------0--------0---------0---|

A|----------2---------0-----4-0-4-----3-----3---3------2-----2----2-----|
E|-----------------------------------------------------3--------3-------|
C|--0-------2-------------------------2-------2-------------------------|
G|--9---0-------0-----6---0-------0-------0-------0--------0--------0---|
S
A|---2-------0-------2-------------------------------------------|
E|---3-------------------------3-------3-------3-------3-------|
C|-------------------2-----------------------------------------|
G|-------0---5---0-------0-----16---0-4---4-0---16---0-4---4-0---|

A|-----------1--------2--------3-----------4----------------3----------------|
E|----------(3)-------------(5)---------------3---3-----------3---3-----|
C|---0-------1-------2-------3----------4-------4-------3-------3-------|
G|---9---0---12---0---11---0---14---0------12---0-------0---12---0-------0---|

A|---2--------1--------------7---7------------6---6-----|
E|----------(3)---------------------------------------|
C|---2-------1-------0-------0--------0-------0-------|
G|---11---0---12---0---9---0-------0----8---0-------0---|

A|---2-----5-2-5-----0-----4-0-4------3-----3---3------2-----2----2------|
E|-----------------------------------------------------3--------3--------|
C|---2--------------------------------2-------2--------------------------|
G|-------0-------0---6---0-------0--------0-------0--------0---------0---|

A|---5--------4--------2------------------1-----5-1-5-----------7---7-----|
E|---------------------------------------------------------------------|
C|---5-------4-------2-------0---------2---------------0-------0-------|
G|---14---0---12---0---10---0---9---0---------0-------0---9---0-------0---|

A|---5--------4--------2------------------1-----5-1-5-----0-----4-0-4-----|
E|---------------------------------------------------------------------|
C|---5-------4-------2-------0---------2-------------------------------|
G|---14---0---12---0---10---0---9---0---------0-------0---6---0-------0---|

A|---3-----3---3----3---|
E|----------------------|
C|---2-------2----------|
G|-------0-------0------|
S
A|---2-------0-------2-------------------------------------------|
E|---3-------------------------3-------3-------3-------3-------|
C|-------------------2-----------------------------------------|
G|-------0---5---0-------0-----16---0-4---4-0---16---0-4---4-0---|

A|-----------1--------2--------3----------4----------------3----------------|
E|----------(3)-------------(5)--------------3---3-----------3---3-----|
C|---0-------1-------2-------3---------4-------4-------3-------3-------|
G|---9---0---12---0---11---0---14---0-----12---0-------0---12---0-------0---|

A|---2--------1--------------7---7------------6---6-----|
E|----------(3)---------------------------------------|
C|---2-------1-------0-------0--------0-------0-------|
G|---11---0---12---0---9---0-------0----8---0-------0---|

A|---2-----5-2-5-----0-----4-0-4------3-----3---3-------2-----2----2----|
E|------------------------------------------------------3--------3------|
C|---2--------------------------------2-------2-------------------------|
G|-------0-------0---6---0-------0--------0-------0---------0--------0--|

A|---5--------4--------2------------------1-----5-1-5-----------7---7-----|
E|---------------------------------------------------------------------|
C|---5-------4-------2-------0---------2---------------0-------0-------|
G|---14---0---12---0---10---0---9---0---------0-------0---9---0-------0---|

A|---5--------4--------2------------------1-----5-1-5-----0-----4-0-4-----|
E|---------------------------------------------------------------------|
C|---5-------4-------2-------0---------2-------------------------------|
G|---14---0---12---0---10---0---9---0---------0-------0---6---0-------0---|

A|---3-----3---3----3---|
E|----------------------|
C|---2-------2----------|
G|-------0-------0------|
S
A|---2-------0-------2-------------------------------------------|
E|---3-------------------------3-------3-------3-------3-------|
C|-------------------2-----------------------------------------|
G|-------0---5---0-------0-----16---0-4---4-0---16---0-4---4-0---|
~~~~~
A|----------------------------------------------------------------------------|
E|---3-------3-------3-------3---------3------3-----3-----3-------------|
C|----------------------------------------------------------------------|
G|---16---0-4---4-0---16---0-4---4-0-----16---0--16--0--16--0--160------------|
S
A|-------2-------0-------2----------------2-------0--------3-----3---3-----|
E|-3----3-----------------------------------------------------------------|
C|----------------------2--------0-------2----------------2-------2-------|
G|-16--------0---5---0-------0----9---0-------0---6---0--------0-------0---|
S
A|---2-------0-------2-------------------------------------------|
E|---3-------------------------3-------3-------3-------3-------|
C|-------------------2-----------------------------------------|
G|-------0---5---0-------0-----16---0-4---4-0---16---0-4---4-0---|

A|-----------1--------2--------3-----------4----------------3----------------|
E|----------(3)-------------(5)---------------3---3-----------3---3-----|
C|---0-------1-------2-------3----------4-------4-------3-------3-------|
G|---9---0---12---0---11---0---14---0------12---0-------0---12---0-------0---|

A|---2--------1--------------7---7------------6---6-----|
E|----------(3)---------------------------------------|
C|---2-------1-------0-------0--------0-------0-------|
G|---11---0---12---0---9---0-------0----8---0-------0---|

A|---2-----5-2-5-----0-----4-0-4--------3-----3---3------2-----2----2-----|
E|-------------------------------------------------------3--------3-------|
C|---2----------------------------------2-------2-------------------------|
G|-------0-------0---6---0-------0----------0-------0--------0--------0---|

A|-----------2-------0-----4-0-4--------3-----3---3------2-----2----2-----|
E|-------------------------------------------------------3--------3-------|
C|---0-------2--------------------------2-------2-------------------------|
G|---9---0-------0---6---0-------0----------0-------0--------0--------0---|
~~~~~
A|-----------2-------0-----4-0-4--------3-----3---3-----2---2-----------|
E|------------------------------------------------------3---------------|
C|---0-------2--------------------------2-------2-----------2-----------|
G|---9---0-------0---6---0-------0----------0-------0---0---0-----------|

⇢ ¿No estás contento con esta tab? Ver 11 otra(s) versión(es)

Tab por , 01 ene 2018

Comentarios (1)

Comentar
¡Comparte tus patrones de rasgueo, acordes o consejos para tocar este tab!
Filtrar por:
OliviaFollett avatar
It seemed just a little complicated but im a beginner so Im still learning, but otherwise it was really good
29 Jul 2018
Comentario

Top Tabs & Acordes de The Beatles, ¡no te pierdas estas canciones!

Acerca de esta canción: Blackbird

No hay información por esta canción.

¿Has versionado a Blackbird con tu Ukelele? Comparte tu trabajo!
Submit a cover