Love Story (Intro) Tab por Taylor Swift

tablatura Ukulele sin acordes.

ImprimirAñadir esta tab a su SongBook
Tablature / ChordsFont size: A- A A+

¿ No sabe cómo leer una tablatura o un acorde ?

curso de ukulele

A|------0----0--------|------0----0--------|
E|--------------------|--------------------|
C|-2--------------2---|-2--------------2---|
G|---0----0----0----0-|---0----0----0----0-|

Repeat 2 Times

A|------0----0--------|------0----0--------|
E|-0--------------0---|-0--------------0---|
C|--------------------|--------------------|
G|---0----0----0----0-|---0----0----0----0-|

A|------0----0--------|------0----0--------|
E|--------------------|--------------------|
C|-0--------------0---|-0--------------0---|
G|---0----0----0----0-|---0----0----0----0-|

 

Comentarios (0)
Ningún comentario :(
¿Necesitas ayuda, un consejo para compartir o simplemente quieres hablar sobre esta canción? Comience la discusión

Debes iniciar sesión para unirte a la discusión
o Registrarse

 

Acerca de esta canción

No hay información por esta canción.