Love Story (Intro) Tab por Taylor Swift

tablatura Ukulele sin acordes.

ImprimirAñadir esta tab a su SongBook
Tablature / ChordsFont size: A- A A+

¿ No sabe cómo leer una tablatura o un acorde ?

curso de ukulele

Into:
|-------7------7-------------|-------7-----7-----------|
|----5----------------5------|----5--------------5-----|
|-6--------------------------|-6-----------------------|
|----------7------7-------7--|----------7-----7-----7--|

|-------7------7-------------|-------7-----7-----------|
|----5----------------5------|----5--------------5-----|
|-4--------------------------|-4-----------------------|
|----------7------7-------7--|----------7-----7-----7--|

|-------7------7-------------|-------7-----7-----------|
|----7----------------7------|----7--------------7-----|
|-6--------------------------|-6-----------------------|
|----------7------7-------7--|----------7-----7-----7--|

|-------7------7-------------|-------7-----7-----------|
|----5----------------5------|----5--------------5-----|
|-7--------------------------|-7-----------------------|
|----------7------7-------7--|----------7-----7-----7--|

 

Comentarios (1)
Debes iniciar sesión para unirte a la discusión
o Registrarse

 

TaylorRose13 avatar
flag for AU(ISO2) (Chrinside Park)
It sounds really good :D
The only problem being it is challenging and will take a while to adjust to the changes..but that is not your fault at all ;)
Thank you so much!
25 Apr 2012
Acerca de esta canción

No hay información por esta canción.