One Tab por Swedish House Mafia

tablatura Ukulele sin acordes.

Añadir esta tab a su SongBook
Tablature / ChordsFont size: A- A A+

¿ No sabe cómo leer una tablatura o un acorde ?

curso de ukulele

a--2----2-----------2---2---2---2---2-----------------------|
E----------------------------------------------------|
d--2---2---52--2--2--2--2--2--2----------------------|
g--14---12-------9--10--10--10--10--10----------------------|

a--2---2----2----2----2-------2---2---2---2---2----------------|
E----------------------------------------------------|
d--2--2---2---2---2---2--2--2--2--2--2---------------|
g--10--10---14---12---10---9--12--12--12--12--12---------------|

a----7-------7--------------7-------7------------------|
E------1-3-1-------5---5-5----1-3-1-------5------------|
d--2-----------2-----------2----------2----------------|
g----------------5----------------------5--------------|

 

Comentarios (0)
Ningún comentario :(
¿Necesitas ayuda, un consejo para compartir o simplemente quieres hablar sobre esta canción? Comience la discusión

Debes iniciar sesión para unirte a la discusión
o Registrarse

 

Acerca de esta canción

No hay información por esta canción.