We Might Be Dead By Tomorrow Tab por Soko

tablatura Ukulele sin acordes.

Añadir esta tab a su SongBook
Tablature / ChordsFont size: A- A A+

¿ No sabe cómo leer una tablatura o un acorde ?

curso de ukulele

[Intro]

A|--2-2-2-2-2-2--3-3----------------------|
E|-3-3-3-3-3-3--3-3-----------------------| 4x for the intro
C|----------------------------------------|
G|----------------------------------------|

[Verse 1]

Give me all your love now
'Cause for all we know

A|--7-7--5-5--3-3--2-2--------------------|
E|-3-3--3-3--3-3--3-3---------------------|
C|----------------------------------------|
G|----------------------------------------|

We might be dead by tomorrow

A|--2-2-2-2-2-2--3-3----------------------|
E|-3-3-3-3-3-3--3-3-----------------------| 3x
C|----------------------------------------|
G|----------------------------------------|

I count
Going wasting my time
Adding scars to my heart


A|--7-7--5-5--3-3--2-2--------------------|
E|-3-3--3-3--3-3--3-3---------------------|
C|----------------------------------------|
G|----------------------------------------|

'Cause all I hear is
"I'm not ready now"

(A A|--2-2-2-2-2-2--3-3----------------------|
E|-3-3-3-3-3-3--3-3-----------------------| 2x
C|----------------------------------------|
G|----------------------------------------|

A|--7-7--2-2--7-7--2-2--------------------|
E|-3-3--3-3--3-3--3-3---------------------|
C|----------------------------------------|
G|----------------------------------------|

A|--3-3--2-2--3-3--7-7--5-5--3-3--2-2-----|
E|-3-3--3-3--3-3--3-3--3-3--3-3--3-3------| 2x
C|----------------------------------------|
G|----------------------------------------|)

[Chorus]

And I can tell
That you didn't have
To face your mother
losing her lover


A|--2-2-2-2-2-2--0-0----------------------|
E|-3-3-3-3-3-3--3-3---3-3-3-3-3-3-3-3-----|
C|----------------------------------------|
G|-------------------0-0-0-0-0-0-0-0------|

Without saying goodbye
Without saying goodbye
'Cause she didn't have time

(A A|--2-2-2-2-2-2--3-3----------------------|
E|-3-3-3-3-3-3--3-3-----------------------|
C|----------------------------------------|
G|----------------------------------------|


A|--7-7--5-5--3-3--2-2--------------------|
E|-3-3--3-3--3-3--3-3---------------------|
C|----------------------------------------|
G|----------------------------------------|)

A|--2-2-2-2-2-2--3-3----------------------|
E|-3-3-3-3-3-3--3-3-----------------------|
C|----------------------------------------|
G|----------------------------------------|

[Verse 2]

I don't want to judge
What's in your heart

A|--7-7--5-5--3-3--2-2--------------------|
E|-3-3--3-3--3-3--3-3---------------------|
C|----------------------------------------|
G|----------------------------------------|

But if you're not ready for love


A|--2-2-2-2-2-2--0-0----------------------|
E|-3-3-3-3-3-3--3-3---3-3-3-3-3-3-3-3-----|
C|----------------------------------------|
G|-------------------0-0-0-0-0-0-0-0------|

How can you be ready for life?
How can you be ready for life?


A|--7-7--2-2--7-7--2-2--------------------|
E|-3-3--3-3--3-3--3-3---------------------|
C|----------------------------------------|
G|----------------------------------------|

[Bridge]

So let's love fully
And let's love loud
Let's love now

A|--2-2-2-2-2-2--3-3----------------------|
E|-3-3-3-3-3-3--3-3-----------------------|
C|----------------------------------------|
G|----------------------------------------|

'Cause soon enough we'll die
'Cause soon enough we'll die

A|--2-2-2-2-2-2--0-0----------------------|
E|-3-3-3-3-3-3--3-3---3-3-3-3-3-3-3-3-----|
C|----------------------------------------|
G|-------------------0-0-0-0-0-0-0-0------|

'Cause soon enough we'll die

A|--2-2-2-2-2-2--3-3----------------------|
E|-3-3-3-3-3-3--3-3-----------------------|
C|----------------------------------------|
G|----------------------------------------|

'Cause soon enough we'll die
'Cause soon enough we'll die

A|--2-2-2-2-2-2--0-0----------------------|
E|-3-3-3-3-3-3--3-3---3-3-3-3-3-3-3-3-----|
C|----------------------------------------|
G|-------------------0-0-0-0-0-0-0-0------|

'Cause soon enough we'll die

 

Comentarios (1)
Debes iniciar sesión para unirte a la discusión
o Registrarse

 

rajmi77 avatar
instead of e play the g string on 0
20 Jun 2018
Acerca de esta canción

No hay información por esta canción.