We Might Be Dead By Tomorrow Tab por Soko

tablatura Ukulele sin acordes.

Añadir esta tab a su SongBook
Tablature / ChordsFont size: A- A A+

¿ No sabe cómo leer una tablatura o un acorde ?

curso de ukulele

A|-----------------------------------------------------------------|
E|-------------------------------------------------------------|---|
C|-----------------------------------------------------------------|
G|4-4-4-4-4-4-4-5-5-5-4-4-4-4-4-4-4-5-5-5-4-4-4-4-4-4-4-5-5-5-4----|

A|-----------------------------------------------------------------|
E|-----------------------------------------------------------------|
C|-----------------------------------------------------------------|
G|4-4-4-4-4-4-4-4-4-4-4-4-4-4-4-5-5-5-4-4-4-4-4-4-4-5-5-5-4-4------|

A|-----------------------------------------------------------------|
E|-----------------------------------------------------------------|
C|-----------------------------------------------------------------|
G|4-9--9--9--7--7--7--5-5-5-4-4------------------------------------|

A|-----------------------------------------------------------------|
E|3--3--3--3--3--3--3--3--3--3--3--3--3--3--3--3-------------------|
C|-----------------------------------------------------------------|
G|-----------------------------------------------------------------|

 

Comentarios (0)
Ningún comentario :(
¿Necesitas ayuda, un consejo para compartir o simplemente quieres hablar sobre esta canción? Comience la discusión

Debes iniciar sesión para unirte a la discusión
o Registrarse

 

Acerca de esta canción

No hay información por esta canción.