Sweet Sweet Tab por Smashing Pumpkins

tablatura Ukulele sin acordes.

Añadir esta tab a su SongBook
Tablature / ChordsFont size: A- A A+

¿ No sabe cómo leer una tablatura o un acorde ?

curso de ukulele

A|2----2----2----2--0-----0---0---0---0--|
E|3----3----3----3-----3--3---3---3---3--|
C|2----2----2----2--------0---0---4---4--|
G|0----0----0----0-----------------------|

A|2----2----2----2--5--5--5-3---3---3---3|
E|3----3----3----3--------3-3---3---3---3|
C|2----2----2----2--------0-0-0-0---4---4|
G|0----0----0----0-----------------------|

A|2----2----2----2--0-----0---0-2-------0|
E|3----3----3----3-----3--3---3---3--3--3|
C|2----2----2----2--------0---0---4--4--4|
G|0----0----0----0----------------0--0---|

A|2----2----2----2--5--5--5-3---3---3---3|
E|3----3----3----3--------3-3---3---3---3|
C|2----2----2----2--------0-0-0-0---4---4|
G|0----0----0----0-----------------------|

A|2----2----2----2--0-----0---0-2-------0|
E|3----3----3----3-----3--3---3---3--3--3|
C|2----2----2----2--------0---0---4--4--4|
G|0----0----0----0----------------0--0---|

A|2----2----2----2--5--5--5-3---3---3---3|
E|3----3----3----3--------3-3---3---3---3|
C|2----2----2----2--------0-0-0-0---4---4|
G|0----0----0----0-----------------------|

A|10---5----10---5---7---5---------------|
E|7----3----7----3---3---3---------------|
C|7----2----7----2---4---4---------------|
G|0----0----0----0---0---0---------------|

 

Comentarios (0)
Ningún comentario :(
¿Necesitas ayuda, un consejo para compartir o simplemente quieres hablar sobre esta canción? Comience la discusión

Debes iniciar sesión para unirte a la discusión
o Registrarse

 

Acerca de esta canción

No hay información por esta canción.