Sun Tab por Sleeping At Last

tablatura Ukulele sin acordes.

Añadir esta tab a su SongBook
Tablature / ChordsFont size: A- A A+

¿ No sabe cómo leer una tablatura o un acorde ?

curso de ukulele

A|--0-------------------------0---0-------|
E|----3-0-------0-----0-0-------3-------0-|
C|0-------0-0-2---2-0-----0-0-------0-2---|
G|----------------------------------------|

A|----------------0-----------------------|
E|0-1-0-------------3-0-----0-0-1-0-----0-|
C|------2-0-0-0-0-------0-2---------2-0---|
G|----------------------------------------|

A|------0---0-----------------------------|
E|0-------3-----3-3-3-3-3-3---------------|
C|--0-0-------0-------------0-0-2-0-------|
G|----------------------------------------|

A|----------------------------------------|
E|----------------------------------------|
C|----------------------------------------|
G|----------------------------------------|

A|----------------------------------------|
E|----------------------------------------|
C|----------------------------------------|
G|----------------------------------------|

 

Comentarios (0)
Ningún comentario :(
¿Necesitas ayuda, un consejo para compartir o simplemente quieres hablar sobre esta canción? Comience la discusión

Debes iniciar sesión para unirte a la discusión
o Registrarse

 

Acerca de esta canción

No hay información por esta canción.