Iron Man (Intro) Tab por Black Sabbath

tablatura Ukulele sin acordes.

ImprimirAñadir esta tab a su SongBook
Tablature / ChordsFont size: A- A A+

¿ No sabe cómo leer una tablatura o un acorde ?

curso de ukulele

a|-----------5-4-5-4-5-4--------|
e|---5--5-7-7-----------5-5-7-7-|
c|-7----------------------------|
g|------------------------------|

a|-----------5-4-5-4-5-4--------|
e|---5--5-7-7-----------5-5-7-7-|
c|-7----------------------------|
g|------------------------------|

 

Comentarios (2)
Debes iniciar sesión para unirte a la discusión
o Registrarse

 

Zlow avatar
its really great and easy to learn??
08 Feb 2017
gofre avatar
The first note is 6, not 7.
18 Jul 2010
Acerca de esta canción

No hay información por esta canción.